  0
SECTION
  2
HEADER
  9
$ACADVER
  1
AC1015
  9
$ACADMAINTVER
 70
     6
  9
$DWGCODEPAGE
  3
ANSI_1254
  9
$INSBASE
 10
0.0
 20
0.0
 30
0.0
  9
$EXTMIN
 10
0.0
 20
0.0
 30
0.0
  9
$EXTMAX
 10
279.4
 20
215.9
 30
0.0
  9
$LIMMIN
 10
0.0
 20
0.0
  9
$LIMMAX
 10
279.4
 20
215.9
  9
$ORTHOMODE
 70
     0
  9
$REGENMODE
 70
     1
  9
$FILLMODE
 70
     1
  9
$QTEXTMODE
 70
     0
  9
$MIRRTEXT
 70
     1
  9
$LTSCALE
 40
1.0
  9
$ATTMODE
 70
     1
  9
$TEXTSIZE
 40
3.5
  9
$TRACEWID
 40
1.0
  9
$TEXTSTYLE
  7
Standard
  9
$CLAYER
  8
0
  9
$CELTYPE
  6
ByLayer
  9
$CECOLOR
 62
   256
  9
$CELTSCALE
 40
1.0
  9
$DISPSILH
 70
     0
  9
$DIMSCALE
 40
1.0
  9
$DIMASZ
 40
3.5
  9
$DIMEXO
 40
1.0
  9
$DIMDLI
 40
3.75
  9
$DIMRND
 40
0.0
  9
$DIMDLE
 40
0.0
  9
$DIMEXE
 40
1.0
  9
$DIMTP
 40
0.0
  9
$DIMTM
 40
0.0
  9
$DIMTXT
 40
3.5
  9
$DIMCEN
 40
2.5
  9
$DIMTSZ
 40
0.0
  9
$DIMTOL
 70
     0
  9
$DIMLIM
 70
     0
  9
$DIMTIH
 70
     1
  9
$DIMTOH
 70
     1
  9
$DIMSE1
 70
     0
  9
$DIMSE2
 70
     0
  9
$DIMTAD
 70
     1
  9
$DIMZIN
 70
     0
  9
$DIMBLK
  1

  9
$DIMASO
 70
     1
  9
$DIMSHO
 70
     1
  9
$DIMPOST
  1

  9
$DIMAPOST
  1

  9
$DIMALT
 70
     0
  9
$DIMALTD
 70
     3
  9
$DIMALTF
 40
0.0393700787
  9
$DIMLFAC
 40
1.0
  9
$DIMTOFL
 70
     1
  9
$DIMTVP
 40
0.0
  9
$DIMTIX
 70
     0
  9
$DIMSOXD
 70
     0
  9
$DIMSAH
 70
     0
  9
$DIMBLK1
  1

  9
$DIMBLK2
  1

  9
$DIMSTYLE
  2
ISO-25
  9
$DIMCLRD
 70
     0
  9
$DIMCLRE
 70
     0
  9
$DIMCLRT
 70
     0
  9
$DIMTFAC
 40
1.0
  9
$DIMGAP
 40
1.524
  9
$DIMJUST
 70
     0
  9
$DIMSD1
 70
     0
  9
$DIMSD2
 70
     0
  9
$DIMTOLJ
 70
     0
  9
$DIMTZIN
 70
     0
  9
$DIMALTZ
 70
     0
  9
$DIMALTTZ
 70
     0
  9
$DIMUPT
 70
     0
  9
$DIMDEC
 70
     2
  9
$DIMTDEC
 70
     2
  9
$DIMALTU
 70
     2
  9
$DIMALTTD
 70
     3
  9
$DIMTXSTY
  7
Standard
  9
$DIMAUNIT
 70
     0
  9
$DIMADEC
 70
     2
  9
$DIMALTRND
 40
0.0
  9
$DIMAZIN
 70
     0
  9
$DIMDSEP
 70
    44
  9
$DIMATFIT
 70
     3
  9
$DIMFRAC
 70
     0
  9
$DIMLDRBLK
  1

  9
$DIMLUNIT
 70
     2
  9
$DIMLWD
 70
    -2
  9
$DIMLWE
 70
    -2
  9
$DIMTMOVE
 70
     0
  9
$LUNITS
 70
     2
  9
$LUPREC
 70
     2
  9
$SKETCHINC
 40
1.0
  9
$FILLETRAD
 40
10.0
  9
$AUNITS
 70
     0
  9
$AUPREC
 70
     2
  9
$MENU
  1
.
  9
$ELEVATION
 40
0.0
  9
$PELEVATION
 40
0.0
  9
$THICKNESS
 40
0.0
  9
$LIMCHECK
 70
     0
  9
$CHAMFERA
 40
0.0
  9
$CHAMFERB
 40
0.0
  9
$CHAMFERC
 40
0.0
  9
$CHAMFERD
 40
0.0
  9
$SKPOLY
 70
     0
  9
$TDCREATE
 40
2460390.355082523
  9
$TDUCREATE
 40
2460390.230082523
  9
$TDUPDATE
 40
2460390.35508272
  9
$TDUUPDATE
 40
2460390.23008272
  9
$TDINDWG
 40
0.0000000116
  9
$TDUSRTIMER
 40
0.0000000116
  9
$USRTIMER
 70
     1
  9
$ANGBASE
 50
0.0
  9
$ANGDIR
 70
     0
  9
$PDMODE
 70
     0
  9
$PDSIZE
 40
-1.0
  9
$PLINEWID
 40
0.0
  9
$SPLFRAME
 70
     0
  9
$SPLINETYPE
 70
     6
  9
$SPLINESEGS
 70
     8
  9
$HANDSEED
  5
10F
  9
$SURFTAB1
 70
     6
  9
$SURFTAB2
 70
     6
  9
$SURFTYPE
 70
     6
  9
$SURFU
 70
     6
  9
$SURFV
 70
     6
  9
$UCSBASE
  2

  9
$UCSNAME
  2

  9
$UCSORG
 10
0.0
 20
0.0
 30
0.0
  9
$UCSXDIR
 10
1.0
 20
0.0
 30
0.0
  9
$UCSYDIR
 10
0.0
 20
1.0
 30
0.0
  9
$UCSORTHOREF
  2

  9
$UCSORTHOVIEW
 70
     0
  9
$UCSORGTOP
 10
0.0
 20
0.0
 30
0.0
  9
$UCSORGBOTTOM
 10
0.0
 20
0.0
 30
0.0
  9
$UCSORGLEFT
 10
0.0
 20
0.0
 30
0.0
  9
$UCSORGRIGHT
 10
0.0
 20
0.0
 30
0.0
  9
$UCSORGFRONT
 10
0.0
 20
0.0
 30
0.0
  9
$UCSORGBACK
 10
0.0
 20
0.0
 30
0.0
  9
$PUCSBASE
  2

  9
$PUCSNAME
  2

  9
$PUCSORG
 10
0.0
 20
0.0
 30
0.0
  9
$PUCSXDIR
 10
1.0
 20
0.0
 30
0.0
  9
$PUCSYDIR
 10
0.0
 20
1.0
 30
0.0
  9
$PUCSORTHOREF
  2

  9
$PUCSORTHOVIEW
 70
     0
  9
$PUCSORGTOP
 10
0.0
 20
0.0
 30
0.0
  9
$PUCSORGBOTTOM
 10
0.0
 20
0.0
 30
0.0
  9
$PUCSORGLEFT
 10
0.0
 20
0.0
 30
0.0
  9
$PUCSORGRIGHT
 10
0.0
 20
0.0
 30
0.0
  9
$PUCSORGFRONT
 10
0.0
 20
0.0
 30
0.0
  9
$PUCSORGBACK
 10
0.0
 20
0.0
 30
0.0
  9
$USERI1
 70
     0
  9
$USERI2
 70
     0
  9
$USERI3
 70
     0
  9
$USERI4
 70
     0
  9
$USERI5
 70
     0
  9
$USERR1
 40
0.0
  9
$USERR2
 40
0.0
  9
$USERR3
 40
0.0
  9
$USERR4
 40
0.0
  9
$USERR5
 40
0.0
  9
$WORLDVIEW
 70
     1
  9
$SHADEDGE
 70
     3
  9
$SHADEDIF
 70
    70
  9
$TILEMODE
 70
     1
  9
$MAXACTVP
 70
    64
  9
$PINSBASE
 10
0.0
 20
0.0
 30
0.0
  9
$PLIMCHECK
 70
     0
  9
$PEXTMIN
 10
1.0000000000E+20
 20
1.0000000000E+20
 30
1.0000000000E+20
  9
$PEXTMAX
 10
-1.0000000000E+20
 20
-1.0000000000E+20
 30
-1.0000000000E+20
  9
$PLIMMIN
 10
0.0
 20
0.0
  9
$PLIMMAX
 10
420.0
 20
297.0
  9
$UNITMODE
 70
     0
  9
$VISRETAIN
 70
     1
  9
$PLINEGEN
 70
     0
  9
$PSLTSCALE
 70
     1
  9
$TREEDEPTH
 70
  3020
  9
$CMLSTYLE
  2
Standard
  9
$CMLJUST
 70
     0
  9
$CMLSCALE
 40
20.0
  9
$PROXYGRAPHICS
 70
     1
  9
$MEASUREMENT
 70
     1
  9
$CELWEIGHT
370
    -1
  9
$ENDCAPS
280
     0
  9
$JOINSTYLE
280
     0
  9
$LWDISPLAY
290
     1
  9
$INSUNITS
 70
     4
  9
$HYPERLINKBASE
  1

  9
$STYLESHEET
  1

  9
$XEDIT
290
     1
  9
$CEPSNTYPE
380
     0
  9
$PSTYLEMODE
290
     1
  9
$FINGERPRINTGUID
  2
{208bcf28-b8a0-4407-b094-61176e013428}
  9
$VERSIONGUID
  2
{FAEB1C32-E019-11D5-929B-00C0DF256EC4}
  9
$EXTNAMES
290
     1
  9
$PSVPSCALE
 40
0.0
  9
$OLESTARTUP
290
     0
  0
ENDSEC
  0
SECTION
  2
CLASSES
  0
CLASS
  1
ACDBDICTIONARYWDFLT
  2
AcDbDictionaryWithDefault
  3
ObjectDBX Classes
 90
        0
280
     0
281
     0
  0
CLASS
  1
VISUALSTYLE
  2
AcDbVisualStyle
  3
ObjectDBX Classes
 90
     4095
280
     0
281
     0
  0
CLASS
  1
MATERIAL
  2
AcDbMaterial
  3
ObjectDBX Classes
 90
     1153
280
     0
281
     0
  0
CLASS
  1
SCALE
  2
AcDbScale
  3
ObjectDBX Classes
 90
     1153
280
     0
281
     0
  0
CLASS
  1
TABLESTYLE
  2
AcDbTableStyle
  3
ObjectDBX Classes
 90
     4095
280
     0
281
     0
  0
CLASS
  1
MLEADERSTYLE
  2
AcDbMLeaderStyle
  3
ACDB_MLEADERSTYLE_CLASS
 90
     4095
280
     0
281
     0
  0
CLASS
  1
SUN
  2
AcDbSun
  3
SCENEOE
 90
     1153
280
     0
281
     0
  0
CLASS
  1
ACDBPLACEHOLDER
  2
AcDbPlaceHolder
  3
ObjectDBX Classes
 90
        0
280
     0
281
     0
  0
CLASS
  1
LAYOUT
  2
AcDbLayout
  3
ObjectDBX Classes
 90
        0
280
     0
281
     0
  0
ENDSEC
  0
SECTION
  2
TABLES
  0
TABLE
  2
VPORT
  5
8
330
0
100
AcDbSymbolTable
 70
     1
  0
VPORT
  5
29
330
8
100
AcDbSymbolTableRecord
100
AcDbViewportTableRecord
  2
*Active
 70
     0
 10
0.0
 20
0.0
 11
1.0
 21
1.0
 12
139.7
 22
107.95
 13
0.0
 23
0.0
 14
10.0
 24
10.0
 15
10.0
 25
10.0
 16
0.0
 26
0.0
 36
1.0
 17
0.0
 27
0.0
 37
0.0
 40
215.9
 41
1.2941176471
 42
50.0
 43
0.0
 44
0.0
 50
0.0
 51
0.0
 71
     0
 72
  2000
 73
     1
 74
     3
 75
     0
 76
     0
 77
     0
 78
     0
281
     0
 65
     1
110
0.0
120
0.0
130
0.0
111
1.0
121
0.0
131
0.0
112
0.0
122
1.0
132
0.0
 79
     0
146
0.0
  0
ENDTAB
  0
TABLE
  2
LTYPE
  5
5
330
0
100
AcDbSymbolTable
 70
     6
  0
LTYPE
  5
14
330
5
100
AcDbSymbolTableRecord
100
AcDbLinetypeTableRecord
  2
ByBlock
 70
     0
  3

 72
    65
 73
     0
 40
0.0
  0
LTYPE
  5
15
330
5
100
AcDbSymbolTableRecord
100
AcDbLinetypeTableRecord
  2
ByLayer
 70
     0
  3

 72
    65
 73
     0
 40
0.0
  0
LTYPE
  5
16
330
5
100
AcDbSymbolTableRecord
100
AcDbLinetypeTableRecord
  2
Continuous
 70
     0
  3
Solid line
 72
    65
 73
     0
 40
0.0
  0
LTYPE
  5
6E
330
5
100
AcDbSymbolTableRecord
100
AcDbLinetypeTableRecord
  2
HIDDEN
 70
     0
  3
Hidden __ __ __ __ __ __ __ __ __ __ __ __ __ __
 72
    65
 73
     2
 40
1.905
 49
1.27
 74
     0
 49
-0.635
 74
     0
  0
LTYPE
  5
6F
330
5
100
AcDbSymbolTableRecord
100
AcDbLinetypeTableRecord
  2
PHANTOM
 70
     0
  3
Phantom ______  __  __  ______  __  __  ______
 72
    65
 73
     6
 40
12.7
 49
6.35
 74
     0
 49
-1.27
 74
     0
 49
1.27
 74
     0
 49
-1.27
 74
     0
 49
1.27
 74
     0
 49
-1.27
 74
     0
  0
LTYPE
  5
70
330
5
100
AcDbSymbolTableRecord
100
AcDbLinetypeTableRecord
  2
CENTER
 70
     0
  3
Center ____ _ ____ _ ____ _ ____ _ ____ _ ____
 72
    65
 73
     4
 40
10.16
 49
6.35
 74
     0
 49
-1.27
 74
     0
 49
1.27
 74
     0
 49
-1.27
 74
     0
  0
LTYPE
  5
71
330
5
100
AcDbSymbolTableRecord
100
AcDbLinetypeTableRecord
  2
CENTERX2
 70
     0
  3
Center (2x) ________  __  ________  __  _____
 72
    65
 73
     4
 40
20.32
 49
12.7
 74
     0
 49
-2.54
 74
     0
 49
2.54
 74
     0
 49
-2.54
 74
     0
  0
LTYPE
  5
72
330
5
100
AcDbSymbolTableRecord
100
AcDbLinetypeTableRecord
  2
DOT2
 70
     0
  3
Dot (.5x) ........................................
 72
    65
 73
     2
 40
0.635
 49
0.0
 74
     0
 49
-0.635
 74
     0
  0
ENDTAB
  0
TABLE
  2
LAYER
  5
2
330
0
100
AcDbSymbolTable
 70
    17
  0
LAYER
  5
10
330
2
100
AcDbSymbolTableRecord
100
AcDbLayerTableRecord
  2
0
 70
     0
 62
     7
  6
Continuous
370
    -3
390
F
  0
LAYER
  5
73
330
2
100
AcDbSymbolTableRecord
100
AcDbLayerTableRecord
  2
FORMAT
 70
     0
 62
     7
  6
Continuous
370
    -3
390
F
  0
LAYER
  5
74
330
2
100
AcDbSymbolTableRecord
100
AcDbLayerTableRecord
  2
YARDIMCI_GEOMETRI
 70
     0
 62
    -6
  6
Continuous
290
     0
370
    -3
390
F
  0
LAYER
  5
75
330
2
100
AcDbSymbolTableRecord
100
AcDbLayerTableRecord
  2
SAYFA_CERCEVESI
 70
     0
 62
     7
  6
Continuous
370
    25
390
F
  0
LAYER
  5
76
330
2
100
AcDbSymbolTableRecord
100
AcDbLayerTableRecord
  2
ANTET
 70
     0
 62
     7
  6
Continuous
370
    -3
390
F
  0
LAYER
  5
77
330
2
100
AcDbSymbolTableRecord
100
AcDbLayerTableRecord
  2
OLCU
 70
     0
 62
   150
  6
Continuous
370
    -3
390
F
  0
LAYER
  5
78
330
2
100
AcDbSymbolTableRecord
100
AcDbLayerTableRecord
  2
METIN
 70
     0
 62
    96
  6
Continuous
370
    -3
390
F
  0
LAYER
  5
79
330
2
100
AcDbSymbolTableRecord
100
AcDbLayerTableRecord
  2
BALON
 70
     0
 62
     5
  6
Continuous
370
    -3
390
F
  0
LAYER
  5
7A
330
2
100
AcDbSymbolTableRecord
100
AcDbLayerTableRecord
  2
VURGU
 70
     0
 62
     7
  6
Continuous
370
    -3
390
F
  0
LAYER
  5
7B
330
2
100
AcDbSymbolTableRecord
100
AcDbLayerTableRecord
  2
SILIK
 70
     0
 62
     7
  6
Continuous
370
    -3
390
F
  0
LAYER
  5
7C
330
2
100
AcDbSymbolTableRecord
100
AcDbLayerTableRecord
  2
MODEL
 70
     0
 62
     7
  6
Continuous
370
    -3
390
F
  0
LAYER
  5
7D
330
2
100
AcDbSymbolTableRecord
100
AcDbLayerTableRecord
  2
DETAYLANDıRMA
 70
     0
 62
   190
  6
Continuous
370
    -3
390
F
  0
LAYER
  5
7E
330
2
100
AcDbSymbolTableRecord
100
AcDbLayerTableRecord
  2
TOLERANS
 70
     0
 62
   230
  6
Continuous
370
    -3
390
F
  0
LAYER
  5
7F
330
2
100
AcDbSymbolTableRecord
100
AcDbLayerTableRecord
  2
MERKEZ_CIZGILERI
 70
     0
 62
    30
  6
Continuous
370
    -3
390
F
  0
LAYER
  5
80
330
2
100
AcDbSymbolTableRecord
100
AcDbLayerTableRecord
  2
KESIT-DETAY_CIZGILERI
 70
     0
 62
     7
  6
Continuous
370
    -3
390
F
  0
LAYER
  5
81
330
2
100
AcDbSymbolTableRecord
100
AcDbLayerTableRecord
  2
\U+041E\U+0421\U+0415\U+0412\U+042B\U+0415
 70
     0
 62
     7
  6
Continuous
370
    -3
390
F
  0
LAYER
  5
82
330
2
100
AcDbSymbolTableRecord
100
AcDbLayerTableRecord
  2
\U+0412\U+041E\U+0414\U+042F\U+041D\U+042B\U+0415_\U+0417\U+041D\U+0410\U+041A\U+0418
 70
     0
 62
    11
  6
Continuous
370
    -3
390
F
  0
ENDTAB
  0
TABLE
  2
STYLE
  5
3
330
0
100
AcDbSymbolTable
 70
     1
  0
STYLE
  5
11
330
3
100
AcDbSymbolTableRecord
100
AcDbTextStyleTableRecord
  2
Standard
 70
     0
 40
0.0
 41
1.0
 50
0.0
 71
     0
 42
3.5
  3
txt
  4

  0
ENDTAB
  0
TABLE
  2
VIEW
  5
6
330
0
100
AcDbSymbolTable
 70
     0
  0
ENDTAB
  0
TABLE
  2
UCS
  5
7
330
0
100
AcDbSymbolTable
 70
     0
  0
ENDTAB
  0
TABLE
  2
APPID
  5
9
330
0
100
AcDbSymbolTable
 70
     1
  0
APPID
  5
12
330
9
100
AcDbSymbolTableRecord
100
AcDbRegAppTableRecord
  2
ACAD
 70
     0
  0
ENDTAB
  0
TABLE
  2
DIMSTYLE
  5
A
330
0
100
AcDbSymbolTable
 70
     1
100
AcDbDimStyleTable
  0
DIMSTYLE
105
27
330
A
100
AcDbSymbolTableRecord
100
AcDbDimStyleTableRecord
  2
ISO-25
 70
     0
 41
2.5
 42
0.625
 43
3.75
 44
1.25
 73
     0
 74
     0
 77
     1
 78
     8
140
2.5
141
2.5
143
0.0393700787
147
0.625
171
     3
172
     1
178
     0
271
     2
272
     2
274
     3
278
    44
283
     0
284
     8
340
11
  0
ENDTAB
  0
TABLE
  2
BLOCK_RECORD
  5
1
330
0
100
AcDbSymbolTable
 70
     4
  0
BLOCK_RECORD
  5
1F
330
1
100
AcDbSymbolTableRecord
100
AcDbBlockTableRecord
  2
*Model_Space
340
22
  0
BLOCK_RECORD
  5
1B
330
1
100
AcDbSymbolTableRecord
100
AcDbBlockTableRecord
  2
*Paper_Space
340
1E
  0
BLOCK_RECORD
  5
23
330
1
100
AcDbSymbolTableRecord
100
AcDbBlockTableRecord
  2
*Paper_Space0
340
26
  0
BLOCK_RECORD
  5
8C
330
1
100
AcDbSymbolTableRecord
100
AcDbBlockTableRecord
  2
SW_CENTERMARKSYMBOL_0
340
0
102
{BLKREFS
331
97
102
}
  0
BLOCK_RECORD
  5
DE
330
1
100
AcDbSymbolTableRecord
100
AcDbBlockTableRecord
  2
SW_CENTERMARKSYMBOL_1
340
0
102
{BLKREFS
331
E9
102
}
  0
BLOCK_RECORD
  5
EA
330
1
100
AcDbSymbolTableRecord
100
AcDbBlockTableRecord
  2
SW_CENTERMARKSYMBOL_2
340
0
102
{BLKREFS
331
F5
102
}
  0
ENDTAB
  0
ENDSEC
  0
SECTION
  2
BLOCKS
  0
BLOCK
  5
20
330
1F
100
AcDbEntity
  8
0
100
AcDbBlockBegin
  2
*Model_Space
 70
     0
 10
0.0
 20
0.0
 30
0.0
  3
*Model_Space
  1

  0
ENDBLK
  5
21
330
1F
100
AcDbEntity
  8
0
100
AcDbBlockEnd
  0
BLOCK
  5
1C
330
1B
100
AcDbEntity
 67
     1
  8
0
100
AcDbBlockBegin
  2
*Paper_Space
 70
     0
 10
0.0
 20
0.0
 30
0.0
  3
*Paper_Space
  1

  0
ENDBLK
  5
1D
330
1B
100
AcDbEntity
 67
     1
  8
0
100
AcDbBlockEnd
  0
BLOCK
  5
24
330
23
100
AcDbEntity
  8
0
100
AcDbBlockBegin
  2
*Paper_Space0
 70
     0
 10
0.0
 20
0.0
 30
0.0
  3
*Paper_Space0
  1

  0
ENDBLK
  5
25
330
23
100
AcDbEntity
  8
0
100
AcDbBlockEnd
  0
BLOCK
  5
8D
330
8C
100
AcDbEntity
  8
0
100
AcDbBlockBegin
  2
SW_CENTERMARKSYMBOL_0
 70
     0
 10
0.0
 20
0.0
 30
0.0
  3
SW_CENTERMARKSYMBOL_0
  1

  0
LINE
  5
8F
330
8C
100
AcDbEntity
  8
FORMAT
 62
     0
100
AcDbLine
 10
0.0
 20
0.0
 30
0.0
 11
0.0
 21
2.5
 31
0.0
  0
LINE
  5
90
330
8C
100
AcDbEntity
  8
FORMAT
 62
     0
100
AcDbLine
 10
0.0
 20
0.0
 30
0.0
 11
-2.5
 21
0.0
 31
0.0
  0
LINE
  5
91
330
8C
100
AcDbEntity
  8
FORMAT
 62
     0
100
AcDbLine
 10
0.0
 20
0.0
 30
0.0
 11
0.0
 21
-2.5
 31
0.0
  0
LINE
  5
92
330
8C
100
AcDbEntity
  8
FORMAT
 62
     0
100
AcDbLine
 10
0.0
 20
0.0
 30
0.0
 11
2.5
 21
0.0
 31
0.0
  0
LINE
  5
93
330
8C
100
AcDbEntity
  8
FORMAT
 62
     0
100
AcDbLine
 10
0.0
 20
5.0
 30
0.0
 11
0.0
 21
103.1
 31
0.0
  0
LINE
  5
94
330
8C
100
AcDbEntity
  8
FORMAT
 62
     0
100
AcDbLine
 10
-5.0
 20
0.0
 30
0.0
 11
-103.1
 21
0.0
 31
0.0
  0
LINE
  5
95
330
8C
100
AcDbEntity
  8
FORMAT
 62
     0
100
AcDbLine
 10
0.0
 20
-5.0
 30
0.0
 11
0.0
 21
-103.1
 31
0.0
  0
LINE
  5
96
330
8C
100
AcDbEntity
  8
FORMAT
 62
     0
100
AcDbLine
 10
5.0
 20
0.0
 30
0.0
 11
103.1
 21
0.0
 31
0.0
  0
ENDBLK
  5
8E
330
8C
100
AcDbEntity
  8
0
100
AcDbBlockEnd
  0
BLOCK
  5
DF
330
DE
100
AcDbEntity
  8
0
100
AcDbBlockBegin
  2
SW_CENTERMARKSYMBOL_1
 70
     0
 10
0.0
 20
0.0
 30
0.0
  3
SW_CENTERMARKSYMBOL_1
  1

  0
LINE
  5
E1
330
DE
100
AcDbEntity
  8
FORMAT
 62
     0
100
AcDbLine
 10
0.0
 20
0.0
 30
0.0
 11
0.0
 21
2.5
 31
0.0
  0
LINE
  5
E2
330
DE
100
AcDbEntity
  8
FORMAT
 62
     0
100
AcDbLine
 10
0.0
 20
0.0
 30
0.0
 11
-2.5
 21
0.0
 31
0.0
  0
LINE
  5
E3
330
DE
100
AcDbEntity
  8
FORMAT
 62
     0
100
AcDbLine
 10
0.0
 20
0.0
 30
0.0
 11
0.0
 21
-2.5
 31
0.0
  0
LINE
  5
E4
330
DE
100
AcDbEntity
  8
FORMAT
 62
     0
100
AcDbLine
 10
0.0
 20
0.0
 30
0.0
 11
2.5
 21
0.0
 31
0.0
  0
LINE
  5
E5
330
DE
100
AcDbEntity
  8
FORMAT
 62
     0
100
AcDbLine
 10
0.0
 20
5.0
 30
0.0
 11
0.0
 21
9.5
 31
0.0
  0
LINE
  5
E6
330
DE
100
AcDbEntity
  8
FORMAT
 62
     0
100
AcDbLine
 10
-5.0
 20
0.0
 30
0.0
 11
-9.5
 21
0.0
 31
0.0
  0
LINE
  5
E7
330
DE
100
AcDbEntity
  8
FORMAT
 62
     0
100
AcDbLine
 10
0.0
 20
-5.0
 30
0.0
 11
0.0
 21
-9.5
 31
0.0
  0
LINE
  5
E8
330
DE
100
AcDbEntity
  8
FORMAT
 62
     0
100
AcDbLine
 10
5.0
 20
0.0
 30
0.0
 11
9.5
 21
0.0
 31
0.0
  0
ENDBLK
  5
E0
330
DE
100
AcDbEntity
  8
0
100
AcDbBlockEnd
  0
BLOCK
  5
EB
330
EA
100
AcDbEntity
  8
0
100
AcDbBlockBegin
  2
SW_CENTERMARKSYMBOL_2
 70
     0
 10
0.0
 20
0.0
 30
0.0
  3
SW_CENTERMARKSYMBOL_2
  1

  0
LINE
  5
ED
330
EA
100
AcDbEntity
  8
FORMAT
 62
     0
100
AcDbLine
 10
0.0
 20
0.0
 30
0.0
 11
0.0
 21
2.5
 31
0.0
  0
LINE
  5
EE
330
EA
100
AcDbEntity
  8
FORMAT
 62
     0
100
AcDbLine
 10
0.0
 20
0.0
 30
0.0
 11
-2.5
 21
0.0
 31
0.0
  0
LINE
  5
EF
330
EA
100
AcDbEntity
  8
FORMAT
 62
     0
100
AcDbLine
 10
0.0
 20
0.0
 30
0.0
 11
0.0
 21
-2.5
 31
0.0
  0
LINE
  5
F0
330
EA
100
AcDbEntity
  8
FORMAT
 62
     0
100
AcDbLine
 10
0.0
 20
0.0
 30
0.0
 11
2.5
 21
0.0
 31
0.0
  0
LINE
  5
F1
330
EA
100
AcDbEntity
  8
FORMAT
 62
     0
100
AcDbLine
 10
0.0
 20
5.0
 30
0.0
 11
0.0
 21
9.5
 31
0.0
  0
LINE
  5
F2
330
EA
100
AcDbEntity
  8
FORMAT
 62
     0
100
AcDbLine
 10
-5.0
 20
0.0
 30
0.0
 11
-9.5
 21
0.0
 31
0.0
  0
LINE
  5
F3
330
EA
100
AcDbEntity
  8
FORMAT
 62
     0
100
AcDbLine
 10
0.0
 20
-5.0
 30
0.0
 11
0.0
 21
-9.5
 31
0.0
  0
LINE
  5
F4
330
EA
100
AcDbEntity
  8
FORMAT
 62
     0
100
AcDbLine
 10
5.0
 20
0.0
 30
0.0
 11
9.5
 21
0.0
 31
0.0
  0
ENDBLK
  5
EC
330
EA
100
AcDbEntity
  8
0
100
AcDbBlockEnd
  0
ENDSEC
  0
SECTION
  2
ENTITIES
  0
LINE
  5
83
330
1F
100
AcDbEntity
  8
0
  6
Continuous
 62
     7
370
    25
100
AcDbLine
 10
154.4427292145
 20
219.1991513396
 30
0.0
 11
154.4427292145
 21
233.5475145905
 31
0.0
  0
LINE
  5
84
330
1F
100
AcDbEntity
  8
0
  6
Continuous
 62
     7
370
    25
100
AcDbLine
 10
140.4427292145
 20
233.5475145905
 30
0.0
 11
140.4427292145
 21
219.194241586
 31
0.0
  0
CIRCLE
  5
85
330
1F
100
AcDbEntity
  8
0
  6
Continuous
 62
     7
370
    25
100
AcDbCircle
 10
147.4427292145
 20
103.5475145905
 30
0.0
 40
115.6
  0
ARC
  5
86
330
1F
100
AcDbEntity
  8
0
  6
Continuous
 62
     7
370
    25
100
AcDbCircle
 10
147.4427292145
 20
103.5475145905
 30
0.0
 40
116.6
100
AcDbArc
 50
93.441781867
 51
180.0
  0
ARC
  5
87
330
1F
100
AcDbEntity
  8
0
  6
Continuous
 62
     7
370
    25
100
AcDbCircle
 10
147.4427292145
 20
103.5475145905
 30
0.0
 40
116.6
100
AcDbArc
 50
180.0
 51
86.558218133
  0
SPLINE
  5
88
330
1F
100
AcDbEntity
  8
0
  6
Continuous
 62
     7
370
    25
100
AcDbSpline
210
0.0
220
0.0
230
1.0
 70
     8
 71
     3
 72
    14
 73
    10
 74
     0
 42
0.00000001
 43
0.00000001
 40
0.0
 40
0.0
 40
0.0
 40
0.0
 40
0.1430307468129917
 40
0.2860634289275555
 40
0.4290318675424635
 40
0.5719473509565538
 40
0.7149464417054028
 40
0.8579899631591635
 40
1.0
 40
1.0
 40
1.0
 40
1.0
 10
152.4053523826561
 20
219.1977491526106
 30
0.0
 10
151.7953823768152
 20
219.210795654312
 30
0.0
 10
150.5754341118317
 20
219.2368888342426
 30
0.0
 10
148.2422620376786
 20
219.2634157810674
 30
0.0
 10
145.8607260456899
 20
219.2578368414522
 30
0.0
 10
143.6430326110605
 20
219.2241566241397
 30
0.0
 10
141.8712916999768
 20
219.1838855528976
 30
0.0
 10
140.6715003015408
 20
219.1610049782331
 30
0.0
 10
140.5204477542669
 20
219.1831895273672
 30
0.0
 10
140.4451953072123
 20
219.1942415860003
 30
0.0
  0
SPLINE
  5
89
330
1F
100
AcDbEntity
  8
0
  6
Continuous
 62
     7
370
    25
100
AcDbSpline
210
0.0
220
0.0
230
1.0
 70
     8
 71
     3
 72
    10
 73
     6
 74
     0
 42
0.00000001
 43
0.00000001
 40
0.0
 40
0.0
 40
0.0
 40
0.0
 40
0.2962051954909238
 40
0.7260761477978389
 40
1.0
 40
1.0
 40
1.0
 40
1.0
 10
154.3574693029843
 20
219.1991513396125
 30
0.0
 10
154.3542343483556
 20
219.1885151299417
 30
0.0
 10
154.3463046312851
 20
219.1624430074315
 30
0.0
 10
153.5712478876144
 20
219.1728800122735
 30
0.0
 10
152.7319970526654
 20
219.1907816567207
 30
0.0
 10
152.4053523826561
 20
219.1977491526106
 30
0.0
  0
CIRCLE
  5
8A
330
1F
100
AcDbEntity
  8
0
  6
Continuous
 62
     7
370
    25
100
AcDbCircle
 10
147.4427292145
 20
103.5475145905
 30
0.0
 40
100.6
  0
LINE
  5
8B
330
1F
100
AcDbEntity
  8
0
  6
Continuous
 62
     7
370
    25
100
AcDbLine
 10
154.4427292145
 20
233.5475145905
 30
0.0
 11
140.4427292145
 21
233.5475145905
 31
0.0
  0
INSERT
  5
97
330
1F
100
AcDbEntity
  8
FORMAT
 62
     7
100
AcDbBlockReference
  2
SW_CENTERMARKSYMBOL_0
 10
147.4427292145
 20
103.5475145905
 30
0.0
  0
ARC
  5
98
330
1F
100
AcDbEntity
  8
0
  6
Continuous
 62
     7
370
    25
100
AcDbCircle
 10
431.6309889062
 20
-3521.4774854095
 30
0.0
 40
3741.625000000015
100
AcDbArc
 50
91.2467738409
 51
91.3246988947
  0
ARC
  5
99
330
1F
100
AcDbEntity
  8
0
  6
Continuous
 62
     7
370
    25
100
AcDbCircle
 10
431.6309889062
 20
-3521.4774854095
 30
0.0
 40
3741.625000000015
100
AcDbArc
 50
90.0
 51
91.0350790381
  0
ARC
  5
9A
330
1F
100
AcDbEntity
  8
0
  6
Continuous
 62
     7
370
    25
100
AcDbCircle
 10
431.6309889062
 20
3728.5725145905
 30
0.0
 40
3741.625000000015
100
AcDbArc
 50
268.6753011053
 51
270.0
  0
LINE
  5
9B
330
1F
100
AcDbEntity
  8
0
  6
Continuous
 62
     7
370
    25
100
AcDbLine
 10
431.6309889062
 20
-13.0524854095
 30
0.0
 11
456.6309889062
 21
-13.0524854095
 31
0.0
  0
LINE
  5
9C
330
1F
100
AcDbEntity
  8
0
  6
Continuous
 62
     7
370
    25
100
AcDbLine
 10
456.6309889062
 20
220.1475145905
 30
0.0
 11
431.6309889062
 21
220.1475145905
 31
0.0
  0
ARC
  5
9D
330
1F
100
AcDbEntity
  8
0
  6
Continuous
 62
     7
370
    25
100
AcDbCircle
 10
456.6309889062
 20
-3521.4774854095
 30
0.0
 40
3741.625000000015
100
AcDbArc
 50
88.9649312766
 51
90.0
  0
ARC
  5
9E
330
1F
100
AcDbEntity
  8
0
  6
Continuous
 62
     7
370
    25
100
AcDbCircle
 10
456.6309889062
 20
-3521.4774854095
 30
0.0
 40
3741.625000000015
100
AcDbArc
 50
88.6753011053
 51
88.7532428115
  0
ARC
  5
9F
330
1F
100
AcDbEntity
  8
0
  6
Continuous
 62
     7
370
    25
100
AcDbCircle
 10
456.6309889062
 20
3728.5725145905
 30
0.0
 40
3741.625000000015
100
AcDbArc
 50
270.0
 51
271.3246988947
  0
LINE
  5
A0
330
1F
100
AcDbEntity
  8
0
  6
Continuous
 62
     7
370
    25
100
AcDbLine
 10
364.1309889062
 20
219.5315685483
 30
0.0
 11
364.1309889062
 21
233.5475145905
 31
0.0
  0
LINE
  5
A1
330
1F
100
AcDbEntity
  8
0
  6
Continuous
 62
     7
370
    25
100
AcDbLine
 10
350.1309889062
 20
233.5475145905
 30
0.0
 11
350.1309889062
 21
219.2564644863
 31
0.0
  0
LINE
  5
A2
330
1F
100
AcDbEntity
  8
0
  6
Continuous
 62
     7
370
    25
100
AcDbLine
 10
538.1309889062
 20
219.2564195441
 30
0.0
 11
538.1309889062
 21
233.5475145905
 31
0.0
  0
LINE
  5
A3
330
1F
100
AcDbEntity
  8
0
  6
Continuous
 62
     7
370
    25
100
AcDbLine
 10
524.1309889062
 20
233.5475145905
 30
0.0
 11
524.1309889062
 21
219.5316064431
 31
0.0
  0
LINE
  5
A4
330
1F
100
AcDbEntity
  8
0
  6
Continuous
 62
     7
370
    25
100
AcDbLine
 10
345.1309889062
 20
103.5475145905
 30
0.0
 11
345.1309889062
 21
219.1475145905
 31
0.0
  0
LINE
  5
A5
330
1F
100
AcDbEntity
  8
0
  6
Continuous
 62
     7
370
    25
100
AcDbLine
 10
345.1309889062
 20
-12.0524854095
 30
0.0
 11
345.1309889062
 21
103.5475145905
 31
0.0
  0
SPLINE
  5
A6
330
1F
100
AcDbEntity
  8
0
  6
Continuous
 62
     7
370
    25
100
AcDbSpline
210
0.0
220
0.0
230
1.0
 70
     8
 71
     3
 72
    17
 73
    13
 74
     0
 42
0.00000001
 43
0.00000001
 40
0.0
 40
0.0
 40
0.0
 40
0.0
 40
0.0691818384910899
 40
0.1762554618504483
 40
0.28352615049321
 40
0.3910656851375165
 40
0.498620134262765
 40
0.6059679802687274
 40
0.7131896357094628
 40
0.8204901919093923
 40
0.9278960249954431
 40
1.0
 40
1.0
 40
1.0
 40
1.0
 10
364.0404008006738
 20
219.5315506467101
 30
0.0
 10
364.0439179215062
 20
219.5317926026044
 30
0.0
 10
364.0528785355955
 20
219.5324090367555
 30
0.0
 10
363.176349273513
 20
219.4653112868536
 30
0.0
 10
361.6207827006194
 20
219.3633399234192
 30
0.0
 10
359.5257632880886
 20
219.2586680753035
 30
0.0
 10
357.1665723384107
 20
219.1867546354484
 30
0.0
 10
354.8047391488461
 20
219.1630965188796
 30
0.0
 10
352.6993191034467
 20
219.1831945202684
 30
0.0
 10
351.1222408087905
 20
219.2231904190401
 30
0.0
 10
350.2197940487118
 20
219.2562691827794
 30
0.0
 10
350.2189203991286
 20
219.2564003139113
 30
0.0
 10
350.2185694789846
 20
219.2564529855506
 30
0.0
  0
LINE
  5
A7
330
1F
100
AcDbEntity
  8
0
  6
Continuous
 62
     7
370
    25
100
AcDbLine
 10
543.1309889062
 20
103.5475145905
 30
0.0
 11
543.1309889062
 21
219.1475145905
 31
0.0
  0
LINE
  5
A8
330
1F
100
AcDbEntity
  8
0
  6
Continuous
 62
     7
370
    25
100
AcDbLine
 10
543.1309889062
 20
-12.0524854095
 30
0.0
 11
543.1309889062
 21
103.5475145905
 31
0.0
  0
SPLINE
  5
A9
330
1F
100
AcDbEntity
  8
0
  6
Continuous
 62
     7
370
    25
100
AcDbSpline
210
0.0
220
0.0
230
1.0
 70
     8
 71
     3
 72
    17
 73
    13
 74
     0
 42
0.00000001
 43
0.00000001
 40
0.0
 40
0.0
 40
0.0
 40
0.0
 40
0.0711380883184006
 40
0.1784526335583837
 40
0.285829959141644
 40
0.3932406475263195
 40
0.5005511370758331
 40
0.6077741252110718
 40
0.7151111065701693
 40
0.8226588632207253
 40
0.9302113193058095
 40
1.0
 40
1.0
 40
1.0
 40
1.0
 10
538.0422736409631
 20
219.2564083838141
 30
0.0
 10
538.0432518020693
 20
219.256408894335
 30
0.0
 10
538.0457055568661
 20
219.256410174996
 30
0.0
 10
537.1513399078096
 20
219.2235692036756
 30
0.0
 10
535.5794956419684
 20
219.1834990715776
 30
0.0
 10
533.475558798404
 20
219.1630904557121
 30
0.0
 10
531.116148181969
 20
219.186365849874
 30
0.0
 10
528.760161717565
 20
219.2577312974086
 30
0.0
 10
526.6624206635079
 20
219.3620813644741
 30
0.0
 10
525.0969000193879
 20
219.4644756075
 30
0.0
 10
524.2113339641832
 20
219.5322313808664
 30
0.0
 10
524.2183566958216
 20
219.5317689548931
 30
0.0
 10
524.2211203364795
 20
219.5315869773825
 30
0.0
  0
LINE
  5
AA
330
1F
100
AcDbEntity
  8
0
  6
Continuous
 62
     7
370
    25
100
AcDbLine
 10
364.1309889062
 20
233.5475145905
 30
0.0
 11
350.1309889062
 21
233.5475145905
 31
0.0
  0
LINE
  5
AB
330
1F
100
AcDbEntity
  8
0
  6
Continuous
 62
     7
370
    25
100
AcDbLine
 10
538.1309889062
 20
233.5475145905
 30
0.0
 11
524.1309889062
 21
233.5475145905
 31
0.0
  0
LINE
  5
AC
330
1F
100
AcDbEntity
  8
0
  6
Continuous
 62
     1
370
    25
100
AcDbLine
 10
431.6309889062
 20
103.5475145905
 30
0.0
 11
431.6309889062
 21
220.1475145905
 31
0.0
  0
LINE
  5
AD
330
1F
100
AcDbEntity
  8
0
  6
Continuous
 62
     1
370
    25
100
AcDbLine
 10
431.6309889062
 20
-13.0524854095
 30
0.0
 11
431.6309889062
 21
103.5475145905
 31
0.0
  0
LINE
  5
AE
330
1F
100
AcDbEntity
  8
0
  6
Continuous
 62
     1
370
    25
100
AcDbLine
 10
456.6309889062
 20
103.5475145905
 30
0.0
 11
456.6309889062
 21
220.1475145905
 31
0.0
  0
LINE
  5
AF
330
1F
100
AcDbEntity
  8
0
  6
Continuous
 62
     1
370
    25
100
AcDbLine
 10
456.6309889062
 20
-13.0524854095
 30
0.0
 11
456.6309889062
 21
103.5475145905
 31
0.0
  0
ARC
  5
B0
330
1F
100
AcDbEntity
  8
0
  6
Continuous
 62
     7
370
    25
100
AcDbCircle
 10
3772.4677292145
 20
417.0829143117
 30
0.0
 40
3741.625000000015
100
AcDbArc
 50
180.0
 51
181.3246988947
  0
ARC
  5
B1
330
1F
100
AcDbEntity
  8
0
  6
Continuous
 62
     7
370
    25
100
AcDbCircle
 10
-3477.5822707855
 20
417.0829143117
 30
0.0
 40
3741.625000000015
100
AcDbArc
 50
358.6753011053
 51
0.0
  0
LINE
  5
B2
330
1F
100
AcDbEntity
  8
0
  6
Continuous
 62
     7
370
    25
100
AcDbLine
 10
264.0427292145
 20
417.0829143117
 30
0.0
 11
264.0427292145
 21
442.0829143117
 31
0.0
  0
LINE
  5
B3
330
1F
100
AcDbEntity
  8
0
  6
Continuous
 62
     7
370
    25
100
AcDbLine
 10
30.8427292145
 20
442.0829143117
 30
0.0
 11
30.8427292145
 21
417.0829143117
 31
0.0
  0
ARC
  5
B4
330
1F
100
AcDbEntity
  8
0
  6
Continuous
 62
     7
370
    25
100
AcDbCircle
 10
3772.4677292145
 20
442.0829143117
 30
0.0
 40
3741.625000000015
100
AcDbArc
 50
178.6753011053
 51
180.0
  0
ARC
  5
B5
330
1F
100
AcDbEntity
  8
0
  6
Continuous
 62
     7
370
    25
100
AcDbCircle
 10
-3477.5822707855
 20
442.0829143117
 30
0.0
 40
3741.625000000015
100
AcDbArc
 50
0.0
 51
1.3246988947
  0
LINE
  5
B6
330
1F
100
AcDbEntity
  8
0
  6
Continuous
 62
     7
370
    25
100
AcDbLine
 10
263.0427292145
 20
330.5829143117
 30
0.0
 11
31.8427292145
 21
330.5829143117
 31
0.0
  0
LINE
  5
B7
330
1F
100
AcDbEntity
  8
0
  6
Continuous
 62
     7
370
    25
100
AcDbLine
 10
263.0427292145
 20
528.5829143117
 30
0.0
 11
31.8427292145
 21
528.5829143117
 31
0.0
  0
LINE
  5
B8
330
1F
100
AcDbEntity
  8
0
  6
Continuous
 62
     1
370
    25
100
AcDbLine
 10
264.0427292145
 20
417.0829143117
 30
0.0
 11
30.8427292145
 21
417.0829143117
 31
0.0
  0
LINE
  5
B9
330
1F
100
AcDbEntity
  8
0
  6
Continuous
 62
     1
370
    25
100
AcDbLine
 10
264.0427292145
 20
442.0829143117
 30
0.0
 11
30.8427292145
 21
442.0829143117
 31
0.0
  0
ARC
  5
BA
330
1F
100
AcDbEntity
  8
0
  6
Continuous
 62
     7
370
    25
100
AcDbCircle
 10
-217.2419366563
 20
3728.5725145905
 30
0.0
 40
3741.625000000015
100
AcDbArc
 50
270.0
 51
271.3246988947
  0
ARC
  5
BB
330
1F
100
AcDbEntity
  8
0
  6
Continuous
 62
     7
370
    25
100
AcDbCircle
 10
-217.2419366563
 20
-3521.4774854095
 30
0.0
 40
3741.625000000015
100
AcDbArc
 50
88.9649242107
 51
90.0
  0
ARC
  5
BC
330
1F
100
AcDbEntity
  8
0
  6
Continuous
 62
     7
370
    25
100
AcDbCircle
 10
-217.2419366563
 20
-3521.4774854095
 30
0.0
 40
3741.625000000015
100
AcDbArc
 50
88.6753011053
 51
88.7532257546
  0
LINE
  5
BD
330
1F
100
AcDbEntity
  8
0
  6
Continuous
 62
     7
370
    25
100
AcDbLine
 10
-217.2419366563
 20
220.1475145905
 30
0.0
 11
-242.2419366563
 21
220.1475145905
 31
0.0
  0
LINE
  5
BE
330
1F
100
AcDbEntity
  8
0
  6
Continuous
 62
     7
370
    25
100
AcDbLine
 10
-242.2419366563
 20
-13.0524854095
 30
0.0
 11
-217.2419366563
 21
-13.0524854095
 31
0.0
  0
ARC
  5
BF
330
1F
100
AcDbEntity
  8
0
  6
Continuous
 62
     7
370
    25
100
AcDbCircle
 10
-242.2419366563
 20
3728.5725145905
 30
0.0
 40
3741.625000000015
100
AcDbArc
 50
268.6753011053
 51
270.0
  0
ARC
  5
C0
330
1F
100
AcDbEntity
  8
0
  6
Continuous
 62
     7
370
    25
100
AcDbCircle
 10
-242.2419366563
 20
-3521.4774854095
 30
0.0
 40
3741.625000000015
100
AcDbArc
 50
91.2467567624
 51
91.3246988947
  0
ARC
  5
C1
330
1F
100
AcDbEntity
  8
0
  6
Continuous
 62
     7
370
    25
100
AcDbCircle
 10
-242.2419366563
 20
-3521.4774854095
 30
0.0
 40
3741.625000000015
100
AcDbArc
 50
90.0
 51
91.0350719719
  0
LINE
  5
C2
330
1F
100
AcDbEntity
  8
0
  6
Continuous
 62
     7
370
    25
100
AcDbLine
 10
-135.7419366563
 20
219.2564644863
 30
0.0
 11
-135.7419366563
 21
233.5475145905
 31
0.0
  0
LINE
  5
C3
330
1F
100
AcDbEntity
  8
0
  6
Continuous
 62
     7
370
    25
100
AcDbLine
 10
-149.7419366563
 20
233.5475145905
 30
0.0
 11
-149.7419366563
 21
219.5315685483
 31
0.0
  0
LINE
  5
C4
330
1F
100
AcDbEntity
  8
0
  6
Continuous
 62
     7
370
    25
100
AcDbLine
 10
-309.7419366563
 20
219.5316064431
 30
0.0
 11
-309.7419366563
 21
233.5475145905
 31
0.0
  0
LINE
  5
C5
330
1F
100
AcDbEntity
  8
0
  6
Continuous
 62
     7
370
    25
100
AcDbLine
 10
-323.7419366563
 20
233.5475145905
 30
0.0
 11
-323.7419366563
 21
219.2564195441
 31
0.0
  0
LINE
  5
C6
330
1F
100
AcDbEntity
  8
0
  6
Continuous
 62
     7
370
    25
100
AcDbLine
 10
-130.7419366563
 20
219.1475145905
 30
0.0
 11
-130.7419366563
 21
-12.0524854095
 31
0.0
  0
SPLINE
  5
C7
330
1F
100
AcDbEntity
  8
0
  6
Continuous
 62
     7
370
    25
100
AcDbSpline
210
0.0
220
0.0
230
1.0
 70
     8
 71
     3
 72
    10
 73
     6
 74
     0
 42
0.00000001
 43
0.00000001
 40
0.0
 40
0.0
 40
0.0
 40
0.0
 40
0.4247911506473732
 40
0.849615602104924
 40
1.0
 40
1.0
 40
1.0
 40
1.0
 10
-147.6512435362037
 20
219.3928825484819
 30
0.0
 10
-148.1477581376459
 20
219.4252563635405
 30
0.0
 10
-149.1408262639835
 20
219.4900065315501
 30
0.0
 10
-149.7671412241279
 20
219.540671881086
 30
0.0
 10
-149.6753441952775
 20
219.5334408385912
 30
0.0
 10
-149.6513444933817
 20
219.5315503322595
 30
0.0
  0
SPLINE
  5
C8
330
1F
100
AcDbEntity
  8
0
  6
Continuous
 62
     7
370
    25
100
AcDbSpline
210
0.0
220
0.0
230
1.0
 70
     8
 71
     3
 72
    15
 73
    11
 74
     0
 42
0.00000001
 43
0.00000001
 40
0.0
 40
0.0
 40
0.0
 40
0.0
 40
0.047181585273854
 40
0.1906527231563226
 40
0.3341694559914378
 40
0.4777715882683296
 40
0.621295112688573
 40
0.764659002858207
 40
0.9080756209158711
 40
1.0
 40
1.0
 40
1.0
 40
1.0
 10
-135.829536839978
 20
219.2564522446839
 30
0.0
 10
-135.8050593662654
 20
219.2573842094465
 30
0.0
 10
-135.7061500779869
 20
219.2611501197874
 30
0.0
 10
-136.3451124436813
 20
219.2364403358014
 30
0.0
 10
-137.6847201398524
 20
219.1965777514976
 30
0.0
 10
-139.6486729318196
 20
219.1658462455986
 30
0.0
 10
-141.9484548327243
 20
219.1729720734817
 30
0.0
 10
-144.3307193872747
 20
219.2287720191516
 30
0.0
 10
-146.2974002726488
 20
219.3136711925803
 30
0.0
 10
-147.2709674348491
 20
219.370633159342
 30
0.0
 10
-147.6512435362037
 20
219.3928825484819
 30
0.0
  0
LINE
  5
C9
330
1F
100
AcDbEntity
  8
0
  6
Continuous
 62
     7
370
    25
100
AcDbLine
 10
-328.7419366563
 20
219.1475145905
 30
0.0
 11
-328.7419366563
 21
-12.0524854095
 31
0.0
  0
SPLINE
  5
CA
330
1F
100
AcDbEntity
  8
0
  6
Continuous
 62
     7
370
    25
100
AcDbSpline
210
0.0
220
0.0
230
1.0
 70
     8
 71
     3
 72
    10
 73
     6
 74
     0
 42
0.00000001
 43
0.00000001
 40
0.0
 40
0.0
 40
0.0
 40
0.0
 40
0.4278838059775576
 40
0.8557734015089058
 40
1.0
 40
1.0
 40
1.0
 40
1.0
 10
-321.6787748439473
 20
219.1977491526106
 30
0.0
 10
-322.171905409016
 20
219.2103907144981
 30
0.0
 10
-323.1581732115395
 20
219.2356740093217
 30
0.0
 10
-323.7729162825201
 20
219.2610740717791
 30
0.0
 10
-323.6773345604503
 20
219.2573482945379
 30
0.0
 10
-323.653239058879
 20
219.2564090514543
 30
0.0
  0
SPLINE
  5
CB
330
1F
100
AcDbEntity
  8
0
  6
Continuous
 62
     7
370
    25
100
AcDbSpline
210
0.0
220
0.0
230
1.0
 70
     8
 71
     3
 72
    15
 73
    11
 74
     0
 42
0.00000001
 43
0.00000001
 40
0.0
 40
0.0
 40
0.0
 40
0.0
 40
0.050009984158347
 40
0.1928161747999858
 40
0.3357687671551761
 40
0.4791067023313709
 40
0.6225883347453895
 40
0.765845909339337
 40
0.908864927516191
 40
1.0
 40
1.0
 40
1.0
 40
1.0
 10
-309.8320637310351
 20
219.5315873149118
 30
0.0
 10
-309.8075644000674
 20
219.5334929788124
 30
0.0
 10
-309.7131059161895
 20
219.5408403681379
 30
0.0
 10
-310.3639790193768
 20
219.4898970016805
 30
0.0
 10
-311.714247150657
 20
219.396335073613
 30
0.0
 10
-313.6841214347407
 20
219.2875977013802
 30
0.0
 10
-315.9896691425013
 20
219.2035132429558
 30
0.0
 10
-318.3743294879545
 20
219.165087704237
 30
0.0
 10
-320.3355494718137
 20
219.1722833159774
 30
0.0
 10
-321.3024483150579
 20
219.1906144825066
 30
0.0
 10
-321.6787748439473
 20
219.1977491526106
 30
0.0
  0
LINE
  5
CC
330
1F
100
AcDbEntity
  8
0
  6
Continuous
 62
     7
370
    25
100
AcDbLine
 10
-135.7419366563
 20
233.5475145905
 30
0.0
 11
-149.7419366563
 21
233.5475145905
 31
0.0
  0
LINE
  5
CD
330
1F
100
AcDbEntity
  8
0
  6
Continuous
 62
     7
370
    25
100
AcDbLine
 10
-309.7419366563
 20
233.5475145905
 30
0.0
 11
-323.7419366563
 21
233.5475145905
 31
0.0
  0
LINE
  5
CE
330
1F
100
AcDbEntity
  8
0
  6
Continuous
 62
     1
370
    25
100
AcDbLine
 10
-217.2419366563
 20
220.1475145905
 30
0.0
 11
-217.2419366563
 21
-13.0524854095
 31
0.0
  0
LINE
  5
CF
330
1F
100
AcDbEntity
  8
0
  6
Continuous
 62
     1
370
    25
100
AcDbLine
 10
-242.2419366563
 20
220.1475145905
 30
0.0
 11
-242.2419366563
 21
-13.0524854095
 31
0.0
  0
ARC
  5
D0
330
1F
100
AcDbEntity
  8
0
  6
Continuous
 62
     7
370
    25
100
AcDbCircle
 10
-3477.5822707855
 20
-204.4532802665
 30
0.0
 40
3741.625000000015
100
AcDbArc
 50
0.0
 51
1.3246988947
  0
ARC
  5
D1
330
1F
100
AcDbEntity
  8
0
  6
Continuous
 62
     7
370
    25
100
AcDbCircle
 10
3772.4677292145
 20
-204.4532802665
 30
0.0
 40
3741.625000000015
100
AcDbArc
 50
178.6753011053
 51
180.0
  0
LINE
  5
D2
330
1F
100
AcDbEntity
  8
0
  6
Continuous
 62
     7
370
    25
100
AcDbLine
 10
30.8427292145
 20
-204.4532802665
 30
0.0
 11
30.8427292145
 21
-229.4532802665
 31
0.0
  0
LINE
  5
D3
330
1F
100
AcDbEntity
  8
0
  6
Continuous
 62
     7
370
    25
100
AcDbLine
 10
264.0427292145
 20
-229.4532802665
 30
0.0
 11
264.0427292145
 21
-204.4532802665
 31
0.0
  0
ARC
  5
D4
330
1F
100
AcDbEntity
  8
0
  6
Continuous
 62
     7
370
    25
100
AcDbCircle
 10
-3477.5822707855
 20
-229.4532802665
 30
0.0
 40
3741.625000000015
100
AcDbArc
 50
358.6753011053
 51
0.0
  0
ARC
  5
D5
330
1F
100
AcDbEntity
  8
0
  6
Continuous
 62
     7
370
    25
100
AcDbCircle
 10
3772.4677292145
 20
-229.4532802665
 30
0.0
 40
3741.625000000015
100
AcDbArc
 50
180.0
 51
181.3246988947
  0
CIRCLE
  5
D6
330
1F
100
AcDbEntity
  8
0
  6
Continuous
 62
     7
370
    25
100
AcDbCircle
 10
147.4427292145
 20
-129.9532802665
 30
0.0
 40
7.000000000000028
  0
CIRCLE
  5
D7
330
1F
100
AcDbEntity
  8
0
  6
Continuous
 62
     7
370
    25
100
AcDbCircle
 10
147.4427292145
 20
-129.9532802665
 30
0.0
 40
5.0
  0
CIRCLE
  5
D8
330
1F
100
AcDbEntity
  8
0
  6
Continuous
 62
     7
370
    25
100
AcDbCircle
 10
147.4427292145
 20
-303.9532802665
 30
0.0
 40
7.000000000000114
  0
CIRCLE
  5
D9
330
1F
100
AcDbEntity
  8
0
  6
Continuous
 62
     7
370
    25
100
AcDbCircle
 10
147.4427292145
 20
-303.9532802665
 30
0.0
 40
5.000000000000057
  0
LINE
  5
DA
330
1F
100
AcDbEntity
  8
0
  6
Continuous
 62
     7
370
    25
100
AcDbLine
 10
31.8427292145
 20
-117.9532802665
 30
0.0
 11
263.0427292145
 21
-117.9532802665
 31
0.0
  0
LINE
  5
DB
330
1F
100
AcDbEntity
  8
0
  6
Continuous
 62
     7
370
    25
100
AcDbLine
 10
31.8427292145
 20
-315.9532802665
 30
0.0
 11
263.0427292145
 21
-315.9532802665
 31
0.0
  0
LINE
  5
DC
330
1F
100
AcDbEntity
  8
0
  6
Continuous
 62
     1
370
    25
100
AcDbLine
 10
30.8427292145
 20
-204.4532802665
 30
0.0
 11
264.0427292145
 21
-204.4532802665
 31
0.0
  0
LINE
  5
DD
330
1F
100
AcDbEntity
  8
0
  6
Continuous
 62
     1
370
    25
100
AcDbLine
 10
30.8427292145
 20
-229.4532802665
 30
0.0
 11
264.0427292145
 21
-229.4532802665
 31
0.0
  0
INSERT
  5
E9
330
1F
100
AcDbEntity
  8
FORMAT
 62
     7
100
AcDbBlockReference
  2
SW_CENTERMARKSYMBOL_1
 10
147.4427292145
 20
-129.9532802665
 30
0.0
  0
INSERT
  5
F5
330
1F
100
AcDbEntity
  8
FORMAT
 62
     7
100
AcDbBlockReference
  2
SW_CENTERMARKSYMBOL_2
 10
147.4427292145
 20
-303.9532802665
 30
0.0
  0
SPLINE
  5
F6
330
1F
100
AcDbEntity
  8
0
  6
Continuous
 62
     7
370
    25
100
AcDbSpline
210
0.0
220
0.0
230
1.0
 70
     8
 71
     3
 72
    11
 73
     7
 74
     0
 42
0.00000001
 43
0.00000001
 40
0.0
 40
0.0
 40
0.0
 40
0.0
 40
0.0536290419217107
 40
0.39880475192668
 40
0.7439220277126788
 40
1.0
 40
1.0
 40
1.0
 40
1.0
 10
409.2640656678234
 20
-134.4674291029196
 30
0.0
 10
408.1509935459276
 20
-135.1041134084792
 30
0.0
 10
399.8737908299597
 20
-139.8387258019837
 30
0.0
 10
384.5529689168819
 20
-148.8771261073198
 30
0.0
 10
365.1220425367727
 20
-160.4718855556229
 30
0.0
 10
352.8803438491862
 20
-168.0010645297341
 30
0.0
 10
347.6660155800992
 20
-171.2081039913028
 30
0.0
  0
SPLINE
  5
F7
330
1F
100
AcDbEntity
  8
0
  6
Continuous
 62
     7
370
    25
100
AcDbSpline
210
0.0
220
0.0
230
1.0
 70
     8
 71
     3
 72
    11
 73
     7
 74
     0
 42
0.00000001
 43
0.00000001
 40
0.0
 40
0.0
 40
0.0
 40
0.0
 40
0.0179283589284557
 40
0.3631757966497049
 40
0.7084140551785186
 40
1.0
 40
1.0
 40
1.0
 40
1.0
 10
463.2255010707079
 20
-371.3872731084507
 30
0.0
 10
463.6034877388425
 20
-371.1853538353622
 30
0.0
 10
471.2603853874539
 20
-367.0950635218152
 30
0.0
 10
486.0909827111453
 20
-358.9129557065
 30
0.0
 10
506.5984044828333
 20
-347.4762345253916
 30
0.0
 10
519.795846895077
 20
-339.8804728386593
 30
0.0
 10
525.8386271392261
 20
-336.4025627083398
 30
0.0
  0
LINE
  5
F8
330
1F
100
AcDbEntity
  8
0
  6
Continuous
 62
     7
370
    25
100
AcDbLine
 10
426.9337230378
 20
-124.2486147867
 30
0.0
 11
409.2560535081
 21
-134.4537161845
 31
0.0
  0
LINE
  5
F9
330
1F
100
AcDbEntity
  8
0
  6
Continuous
 62
     7
370
    25
100
AcDbLine
 10
525.8465777335
 20
-336.4163108917
 30
0.0
 11
543.5242472631
 21
-326.2112094939
 31
0.0
  0
LINE
  5
FA
330
1F
100
AcDbEntity
  8
0
  6
Continuous
 62
     7
370
    25
100
AcDbLine
 10
421.8718604224
 20
-171.2518600897
 30
0.0
 11
421.8718604224
 21
-159.6959101584
 31
0.0
  0
LINE
  5
FB
330
1F
100
AcDbEntity
  8
0
  6
Continuous
 62
     7
370
    25
100
AcDbLine
 10
407.8718604224
 20
-159.6959101584
 30
0.0
 11
407.8718604224
 21
-171.4121293326
 31
0.0
  0
SPLINE
  5
FC
330
1F
100
AcDbEntity
  8
0
  6
Continuous
 62
     7
370
    25
100
AcDbSpline
210
0.0
220
0.0
230
1.0
 70
     8
 71
     3
 72
    11
 73
     7
 74
     0
 42
0.00000001
 43
0.00000001
 40
0.0
 40
0.0
 40
0.0
 40
0.0
 40
0.0179529934179041
 40
0.3631921185919693
 40
0.7084220647927442
 40
1.0
 40
1.0
 40
1.0
 40
1.0
 10
489.556384977069
 20
-89.27680526677759
 30
0.0
 10
489.1778697644592
 20
-89.47900674380854
 30
0.0
 10
481.5204424604458
 20
-93.5695771080834
 30
0.0
 10
466.6893170420761
 20
-101.7519679969107
 30
0.0
 10
446.1819171079059
 20
-113.1886799620834
 30
0.0
 10
432.9844950221744
 20
-120.7844295227795
 30
0.0
 10
426.9417351974878
 20
-124.2623277051359
 30
0.0
  0
SPLINE
  5
FD
330
1F
100
AcDbEntity
  8
0
  6
Continuous
 62
     7
370
    25
100
AcDbSpline
210
0.0
220
0.0
230
1.0
 70
     8
 71
     3
 72
    11
 73
     7
 74
     0
 42
0.00000001
 43
0.00000001
 40
0.0
 40
0.0
 40
0.0
 40
0.0
 40
0.0536265447123212
 40
0.3987925478601405
 40
0.7439001184321596
 40
1.0
 40
1.0
 40
1.0
 40
1.0
 10
543.5162966688906
 20
-326.1974613105552
 30
0.0
 10
544.6293482540597
 20
-325.560788734491
 30
0.0
 10
552.906530383367
 20
-320.8261879854898
 30
0.0
 10
568.2273323145874
 20
-311.7878003037014
 30
0.0
 10
587.6588543808972
 20
-300.1926809426258
 30
0.0
 10
599.9011449536973
 20
-292.6631359627514
 30
0.0
 10
605.1160656181934
 20
-289.4557313127555
 30
0.0
  0
LINE
  5
FE
330
1F
100
AcDbEntity
  8
0
  6
Continuous
 62
     7
370
    25
100
AcDbLine
 10
544.9084403488
 20
-100.3853281631
 30
0.0
 11
544.9084403488
 21
-88.6684044298
 31
0.0
  0
LINE
  5
FF
330
1F
100
AcDbEntity
  8
0
  6
Continuous
 62
     7
370
    25
100
AcDbLine
 10
530.9084403488
 20
-88.6684044298
 30
0.0
 11
530.9084403488
 21
-100.2256448882
 31
0.0
  0
LWPOLYLINE
  5
100
330
1F
100
AcDbEntity
  8
0
  6
Continuous
 62
     7
370
    25
100
AcDbPolyline
 90
      131
 70
   128
 43
0.0
 10
324.645035143
 20
-223.5562755111
 10
324.7404907246
 20
-219.0509786313
 10
325.0266345287
 20
-214.6664147499
 10
325.502798253
 20
-210.4128242188
 10
326.1678697951
 20
-206.300141496
 10
327.0202958497
 20
-202.3379719423
 10
328.0580855361
 20
-198.5355693885
 10
329.2788150485
 20
-194.9018145219
 10
330.6796333165
 20
-191.4451941453
 10
332.2572686642
 20
-188.1737813558
 10
334.0080364511
 20
-185.0952166895
 10
335.9278476779
 20
-182.2166902769
 10
338.0122185366
 20
-179.5449250498
 10
340.2562808824
 20
-177.0861610396
 10
342.6547936038
 20
-174.8461408037
 10
345.202154863
 20
-172.830096013
 10
347.89241518
 20
-171.0427352337
 10
350.719291327
 20
-169.4882329296
 10
353.6761810039
 20
-168.1702197129
 10
356.7561782577
 20
-167.0917738646
 10
359.9520896122
 20
-166.2554141448
 10
363.2564508684
 20
-165.6630939104
 10
366.6615445374
 20
-165.3161965529
 10
370.1594178651
 20
-165.2155322671
 10
373.7419014064
 20
-165.361336159
 10
377.400628105
 20
-165.7532676969
 10
381.127052835
 20
-166.3904115066
 10
384.9124723589
 20
-167.2712795091
 10
388.748045654
 20
-168.3938143965
 10
392.6248145611
 20
-169.7553944364
 10
396.5337247069
 20
-171.3528395957
 10
400.4656466505
 20
-173.1824189671
 10
404.411397206
 20
-175.2398594832
 10
408.3617608903
 20
-177.5203558964
 10
412.3075114458
 20
-180.0185820016
 10
416.2394333894
 20
-182.7287030761
 10
420.1483435352
 20
-185.6443895064
 10
424.0251124423
 20
-188.7588315718
 10
427.8606857374
 20
-192.0647553485
 10
431.6461052613
 20
-195.5544396985
 10
435.3725299913
 20
-199.2197343021
 10
439.0312566898
 20
-203.0520786941
 10
442.6137402311
 20
-207.0425222564
 10
446.1116135589
 20
-211.1817451234
 10
449.5167072279
 20
-215.4600799481
 10
452.821068484
 20
-219.8675344814
 10
456.0169798386
 20
-224.393814909
 10
459.0969770924
 20
-229.0283498931
 10
462.0538667693
 20
-233.7603152627
 10
464.8807429163
 20
-238.5786592933
 10
467.5710032333
 20
-243.4721285192
 10
470.1183644925
 20
-248.4292940163
 10
472.5168772139
 20
-253.4385780948
 10
474.7609395597
 20
-258.4882813398
 10
476.8453104183
 20
-263.5666099352
 10
478.7651216452
 20
-268.6617032093
 10
480.5158894321
 20
-273.7616613358
 10
482.0935247798
 20
-278.8545731261
 10
483.4943430478
 20
-283.9285438487
 10
484.7150725602
 20
-288.9717230099
 10
485.7528622466
 20
-293.9723320311
 10
486.6052883012
 20
-298.9186917582
 10
487.2703598433
 20
-303.799249739
 10
487.7465235676
 20
-308.602607204
 10
488.0326673717
 20
-313.3175456894
 10
488.1281229533
 20
-317.9330532378
 10
488.0326673717
 20
-322.4383501176
 10
487.7465235676
 20
-326.822913999
 10
487.2703598433
 20
-331.0765045301
 10
486.6052883012
 20
-335.1891872529
 10
485.7528622466
 20
-339.1513568066
 10
484.7150725602
 20
-342.9537593604
 10
483.4943430478
 20
-346.587514227
 10
482.0935247798
 20
-350.0441346036
 10
480.5158894321
 20
-353.3155473931
 10
478.7651216452
 20
-356.3941120594
 10
476.8453104183
 20
-359.272638472
 10
474.7609395597
 20
-361.9444036991
 10
472.5168772139
 20
-364.4031677093
 10
470.1183644925
 20
-366.6431879452
 10
467.5710032333
 20
-368.6592327359
 10
464.8807429163
 20
-370.4465935152
 10
462.0538667693
 20
-372.0010958193
 10
459.0969770924
 20
-373.319109036
 10
456.0169798386
 20
-374.3975548843
 10
452.821068484
 20
-375.2339146041
 10
449.5167072279
 20
-375.8262348385
 10
446.1116135589
 20
-376.173132196
 10
442.6137402311
 20
-376.2737964818
 10
439.0312566898
 20
-376.1279925899
 10
435.3725299913
 20
-375.736061052
 10
431.6461052613
 20
-375.0989172423
 10
427.8606857374
 20
-374.2180492398
 10
424.0251124423
 20
-373.0955143524
 10
420.1483435352
 20
-371.7339343125
 10
416.2394333894
 20
-370.1364891532
 10
412.3075114458
 20
-368.3069097818
 10
408.3617608903
 20
-366.2494692657
 10
404.411397206
 20
-363.9689728525
 10
400.4656466505
 20
-361.4707467473
 10
396.5337247069
 20
-358.7606256728
 10
392.6248145611
 20
-355.8449392425
 10
388.748045654
 20
-352.7304971771
 10
384.9124723589
 20
-349.4245734004
 10
381.127052835
 20
-345.9348890504
 10
377.400628105
 20
-342.2695944468
 10
373.7419014064
 20
-338.4372500548
 10
370.1594178651
 20
-334.4468064925
 10
366.6615445374
 20
-330.3075836255
 10
363.2564508684
 20
-326.0292488008
 10
359.9520896122
 20
-321.6217942675
 10
356.7561782577
 20
-317.0955138399
 10
353.6761810039
 20
-312.4609788558
 10
350.719291327
 20
-307.7290134862
 10
347.89241518
 20
-302.9106694556
 10
345.202154863
 20
-298.0172002297
 10
342.6547936038
 20
-293.0600347326
 10
340.2562808824
 20
-288.0507506541
 10
338.0122185366
 20
-283.0010474091
 10
335.9278476779
 20
-277.9227188137
 10
334.0080364511
 20
-272.8276255396
 10
332.2572686642
 20
-267.7276674131
 10
330.6796333165
 20
-262.6347556228
 10
329.2788150485
 20
-257.5607849002
 10
328.0580855361
 20
-252.517605739
 10
327.0202958497
 20
-247.5169967178
 10
326.1678697951
 20
-242.5706369907
 10
325.502798253
 20
-237.6900790099
 10
325.0266345287
 20
-232.8867215449
 10
324.7404907246
 20
-228.1717830595
 10
324.645035143
 20
-223.5562755111
  0
SPLINE
  5
101
330
1F
100
AcDbEntity
  8
0
  6
Continuous
 62
     7
370
    25
100
AcDbSpline
210
0.0
220
0.0
230
1.0
 70
     8
 71
     3
 72
    12
 73
     8
 74
     0
 42
0.00000001
 43
0.00000001
 40
0.0
 40
0.0
 40
0.0
 40
0.0
 40
0.2143958521549304
 40
0.4287946052289917
 40
0.6430970605477729
 40
0.8573201387000474
 40
0.9999999999999999
 40
0.9999999999999999
 40
0.9999999999999999
 40
0.9999999999999999
 10
414.8900931570013
 20
-175.4540795561593
 30
0.0
 10
414.1032085253599
 20
-175.3999270626883
 30
0.0
 10
412.5294286150024
 20
-175.2916213430268
 30
0.0
 10
410.424823576858
 20
-174.5767113825268
 30
0.0
 10
408.8522763710984
 20
-173.5576548037497
 30
0.0
 10
407.956929055446
 20
-172.4475047383722
 30
0.0
 10
407.9592671024004
 20
-171.705801453989
 30
0.0
 10
407.9602017884965
 20
-171.4092891251638
 30
0.0
  0
SPLINE
  5
102
330
1F
100
AcDbEntity
  8
0
  6
Continuous
 62
     7
370
    25
100
AcDbSpline
210
0.0
220
0.0
230
1.0
 70
     8
 71
     3
 72
    13
 73
     9
 74
     0
 42
0.00000001
 43
0.00000001
 40
0.0
 40
0.0
 40
0.0
 40
0.0
 40
0.0029806553003888
 40
0.2181326793747394
 40
0.4335003947909086
 40
0.6485317966314798
 40
0.8632051223219337
 40
1.0
 40
1.0
 40
1.0
 40
1.0
 10
421.8664813590072
 20
-171.252372441711
 30
0.0
 10
421.8682711747504
 20
-171.2588988965339
 30
0.0
 10
421.9992548895088
 20
-171.7365230878096
 30
0.0
 10
421.5331348892278
 20
-172.7259912519106
 30
0.0
 10
420.4366820940385
 20
-173.9967480292154
 30
0.0
 10
418.619643327639
 20
-174.9386883651444
 30
0.0
 10
416.6721462076133
 20
-175.4066138143319
 30
0.0
 10
415.3893644280377
 20
-175.4407812532583
 30
0.0
 10
414.8900931570013
 20
-175.4540795561593
 30
0.0
  0
LWPOLYLINE
  5
103
330
1F
100
AcDbEntity
  8
0
  6
Continuous
 62
     7
370
    25
100
AcDbPolyline
 90
      122
 70
   128
 43
0.0
 10
335.2516368608
 20
-229.6793363498
 10
335.3475204746
 20
-225.4711012506
 10
335.6349128308
 20
-221.3849156734
 10
336.1130391704
 20
-217.4317952519
 10
336.7806105493
 20
-213.6223969001
 10
337.6358273131
 20
-209.9669900822
 10
338.6763839486
 20
-206.4754291289
 10
339.8994752991
 20
-203.1571266712
 10
341.3018041266
 20
-200.0210282658
 10
342.8795900004
 20
-197.0755882796
 10
344.6285794888
 20
-194.328747098
 10
346.5440576253
 20
-191.7879097192
 10
348.6208606195
 20
-189.4599257916
 10
350.8533897779
 20
-187.3510711483
 10
353.2356265963
 20
-185.4670308886
 10
355.7611489856
 20
-183.8128840518
 10
358.4231485839
 20
-182.3930899254
 10
361.2144491109
 20
-181.2114760234
 10
364.1275257138
 20
-180.271227768
 10
367.1545252533
 20
-179.5748799021
 10
370.2872874737
 20
-179.1243096566
 10
373.5173670018
 20
-178.9207316891
 10
376.8360561145
 20
-178.9646948099
 10
380.2344082125
 20
-179.2560805022
 10
383.7032619395
 20
-179.7941032416
 10
387.233265879
 20
-180.577312614
 10
390.8149037645
 20
-181.6035972254
 10
394.4385201336
 20
-182.8701903938
 10
398.0943463572
 20
-184.3736776081
 10
401.772526974
 20
-186.1100057326
 10
405.4631462595
 20
-188.0744939335
 10
409.1562549564
 20
-190.2618462981
 10
412.8418970969
 20
-192.666166111
 10
416.5101368411
 20
-195.2809717511
 10
420.1510852634
 20
-198.0992141648
 10
423.7549270104
 20
-201.1132958686
 10
427.311946762
 20
-204.3150914313
 10
430.8125554218
 20
-207.6959693781
 10
434.2473159678
 20
-211.2468154597
 10
437.6069688927
 20
-214.9580572229
 10
440.8824571664
 20
-218.819689816
 10
444.0649506513
 20
-222.8213029604
 10
447.1458699079
 20
-226.9521090144
 10
450.1169093225
 20
-231.2009720552
 10
452.9700594981
 20
-235.5564378992
 10
455.6976288463
 20
-240.0067649807
 10
458.2922643222
 20
-244.5399560045
 10
460.7469712475
 20
-249.1437902892
 10
463.0551321662
 20
-253.8058567114
 10
465.2105246845
 20
-258.5135871643
 10
467.2073382454
 20
-263.254290439
 10
469.0401897924
 20
-268.0151864375
 10
470.7041382819
 20
-272.7834406259
 10
472.1946980028
 20
-277.5461986341
 10
473.5078506698
 20
-282.2906209083
 10
474.6400562554
 20
-287.0039173251
 10
475.5882625335
 20
-291.6733816705
 10
476.3499133076
 20
-296.2864258942
 10
476.9229553019
 20
-300.8306140446
 10
477.3058436964
 20
-305.2936957938
 10
477.4975462919
 20
-309.6636394625
 10
477.4975462919
 20
-313.9286644551
 10
477.3058436964
 20
-318.0772730183
 10
476.9229553019
 20
-322.0982812369
 10
476.3499133076
 20
-325.9808491837
 10
475.5882625335
 20
-329.7145101418
 10
474.6400562554
 20
-333.2891988215
 10
473.5078506698
 20
-336.6952784941
 10
472.1946980028
 20
-339.9235669709
 10
470.7041382819
 20
-342.9653613569
 10
469.0401897924
 20
-345.8124615123
 10
467.2073382454
 20
-348.4571921585
 10
465.2105246845
 20
-350.8924235692
 10
463.0551321662
 20
-353.111590791
 10
460.7469712475
 20
-355.1087113414
 10
458.2922643222
 20
-356.8784013366
 10
455.6976288463
 20
-358.4158900052
 10
452.9700594981
 20
-359.7170325496
 10
450.1169093225
 20
-360.7783213194
 10
447.1458699079
 20
-361.5968952679
 10
444.0649506513
 20
-362.1705476644
 10
440.8824571663
 20
-362.4977320433
 10
437.6069688927
 20
-362.5775663736
 10
434.2473159678
 20
-362.4098354359
 10
430.8125554218
 20
-361.9949914033
 10
427.311946762
 20
-361.3341526218
 10
423.7549270104
 20
-360.429100596
 10
420.1510852634
 20
-359.2822751861
 10
416.5101368411
 20
-357.8967680307
 10
412.8418970969
 20
-356.2763142122
 10
409.1562549564
 20
-354.4252821875
 10
405.4631462594
 20
-352.3486620117
 10
401.772526974
 20
-350.0520518857
 10
398.0943463572
 20
-347.5416430643
 10
394.4385201336
 20
-344.8242031658
 10
390.8149037645
 20
-341.9070579279
 10
387.233265879
 20
-338.7980714583
 10
383.7032619395
 20
-335.5056250349
 10
380.2344082125
 20
-332.0385945111
 10
376.8360561145
 20
-328.4063263884
 10
373.5173670018
 20
-324.6186126192
 10
370.2872874737
 20
-320.6856642104
 10
367.1545252533
 20
-316.6180836955
 10
364.1275257138
 20
-312.4268365524
 10
361.2144491109
 20
-308.1232216424
 10
358.4231485839
 20
-303.7188407505
 10
355.7611489856
 20
-299.2255673088
 10
353.2356265963
 20
-294.6555143881
 10
350.8533897779
 20
-290.0210020433
 10
348.6208606195
 20
-285.3345241
 10
346.5440576253
 20
-280.6087144744
 10
344.6285794888
 20
-275.8563131137
 10
342.8795900004
 20
-271.0901316517
 10
341.3018041266
 20
-266.323018871
 10
339.8994752991
 20
-261.5678260648
 10
338.6763839486
 20
-256.8373723923
 10
337.6358273131
 20
-252.1444103201
 10
336.7806105493
 20
-247.5015912445
 10
336.1130391704
 20
-242.9214313846
 10
335.6349128308
 20
-238.4162780418
 10
335.3475204746
 20
-233.998276313
 10
335.2516368608
 20
-229.6793363498
  0
LWPOLYLINE
  5
104
330
1F
100
AcDbEntity
  8
0
  6
Continuous
 62
     7
370
    25
100
AcDbPolyline
 90
       33
 70
   128
 43
0.0
 10
419.8216078907
 20
-156.838481767
 10
420.6921477085
 20
-157.4508430773
 10
421.33901715
 20
-158.1494810565
 10
421.7373573852
 20
-158.9075474388
 10
421.8718604224
 20
-159.6959101584
 10
421.7373573852
 20
-160.4842728779
 10
421.33901715
 20
-161.2423392602
 10
420.6921477085
 20
-161.9409772394
 10
419.8216078907
 20
-162.5533385497
 10
418.7608520535
 20
-163.0558904895
 10
417.5506444489
 20
-163.4293202693
 10
416.2374926765
 20
-163.6592771924
 10
414.8718604224
 20
-163.736924143
 10
413.5062281683
 20
-163.6592771924
 10
412.1930763958
 20
-163.4293202693
 10
410.9828687912
 20
-163.0558904895
 10
409.9221129541
 20
-162.5533385497
 10
409.0515731363
 20
-161.9409772394
 10
408.4047036948
 20
-161.2423392602
 10
408.0063634596
 20
-160.4842728779
 10
407.8718604224
 20
-159.6959101584
 10
408.0063634596
 20
-158.9075474388
 10
408.4047036948
 20
-158.1494810565
 10
409.0515731363
 20
-157.4508430773
 10
409.9221129541
 20
-156.838481767
 10
410.9828687912
 20
-156.3359298273
 10
412.1930763958
 20
-155.9625000474
 10
413.5062281683
 20
-155.7325431244
 10
414.8718604224
 20
-155.6548961738
 10
416.2374926765
 20
-155.7325431244
 10
417.5506444489
 20
-155.9625000474
 10
418.7608520535
 20
-156.3359298273
 10
419.8216078907
 20
-156.838481767
  0
LWPOLYLINE
  5
105
330
1F
100
AcDbEntity
  8
0
  6
Continuous
 62
     7
370
    25
100
AcDbPolyline
 90
       28
 70
   128
 43
0.0
 10
418.4073943283
 20
-157.6548898788
 10
419.1274437846
 20
-158.1805975136
 10
419.6180736402
 20
-158.7879960452
 10
419.8528339128
 20
-159.4443404617
 10
419.8190686153
 20
-160.1142470657
 10
419.5185980435
 20
-160.7616010187
 10
418.9676206438
 20
-161.3515033016
 10
418.1958397505
 20
-161.8521521296
 10
417.2448622711
 20
-162.2365573948
 10
416.1659556479
 20
-162.4839957099
 10
415.0172840161
 20
-162.5811276112
 10
413.8607725607
 20
-162.5227166928
 10
412.7587691137
 20
-162.3119119025
 10
411.770682966
 20
-161.960077781
 10
410.9497820978
 20
-161.4861817969
 10
410.3403214872
 20
-160.9157718054
 10
409.9751573136
 20
-160.2795987567
 10
409.873975672
 20
-159.6119589047
 10
410.0422312909
 20
-158.9488448864
 10
410.4708534665
 20
-158.3260053503
 10
411.1367350662
 20
-157.777017737
 10
412.0039782406
 20
-157.3314781109
 10
413.0258296858
 20
-157.0134056284
 10
414.1472011258
 20
-156.8399476595
 10
415.3076391361
 20
-156.8204553681
 10
416.4445842031
 20
-156.9559795888
 10
417.4967433241
 20
-157.2392141756
 10
418.4073943283
 20
-157.6548898788
  0
LWPOLYLINE
  5
106
330
1F
100
AcDbEntity
  8
0
  6
Continuous
 62
     7
370
    25
100
AcDbPolyline
 90
       14
 70
   128
 43
0.0
 10
489.551054912
 20
-89.2729027635
 10
490.7264340019
 20
-88.6638298592
 10
493.6833236788
 20
-87.3458166425
 10
496.7633209326
 20
-86.2673707941
 10
499.9592322872
 20
-85.4310110743
 10
503.2635935433
 20
-84.83869084
 10
506.6686872123
 20
-84.4917934825
 10
510.1665605401
 20
-84.3911291966
 10
513.7490440814
 20
-84.5369330885
 10
517.4077707799
 20
-84.9288646264
 10
521.1341955099
 20
-85.5660084361
 10
524.9196150339
 20
-86.4468764387
 10
528.7551883289
 20
-87.569411326
 10
530.9363599425
 20
-88.3078445517
  0
LWPOLYLINE
  5
107
330
1F
100
AcDbEntity
  8
0
  6
Continuous
 62
     7
370
    25
100
AcDbPolyline
 90
       50
 70
   128
 43
0.0
 10
544.9084403488
 20
-94.6862925643
 10
548.3689035652
 20
-96.695952826
 10
552.3146541208
 20
-99.1941789312
 10
556.2465760644
 20
-101.9043000056
 10
560.1554862101
 20
-104.8199864359
 10
564.0322551172
 20
-107.9344285013
 10
567.8678284123
 20
-111.2403522781
 10
571.6532479362
 20
-114.730036628
 10
575.3796726663
 20
-118.3953312317
 10
579.0383993648
 20
-122.2276756236
 10
582.6208829061
 20
-126.218119186
 10
586.1187562338
 20
-130.3573420529
 10
589.5238499028
 20
-134.6356768777
 10
592.828211159
 20
-139.0431314109
 10
596.0241225135
 20
-143.5694118385
 10
599.1041197674
 20
-148.2039468227
 10
602.0610094442
 20
-152.9359121923
 10
604.8878855912
 20
-157.7542562229
 10
607.5781459082
 20
-162.6477254488
 10
610.1255071675
 20
-167.6048909459
 10
612.5240198888
 20
-172.6141750244
 10
614.7680822346
 20
-177.6638782693
 10
616.8524530933
 20
-182.7422068647
 10
618.7722643201
 20
-187.8373001389
 10
620.523032107
 20
-192.9372582654
 10
622.1006674547
 20
-198.0301700556
 10
623.5014857227
 20
-203.1041407782
 10
624.7222152351
 20
-208.1473199394
 10
625.7600049216
 20
-213.1479289607
 10
626.6124309761
 20
-218.0942886878
 10
627.2775025183
 20
-222.9748466685
 10
627.7536662426
 20
-227.7782041335
 10
628.0398100466
 20
-232.4931426189
 10
628.1352656282
 20
-237.1086501674
 10
628.0398100466
 20
-241.6139470471
 10
627.7536662426
 20
-245.9985109286
 10
627.2775025183
 20
-250.2521014596
 10
626.6124309761
 20
-254.3647841825
 10
625.7600049216
 20
-258.3269537361
 10
624.7222152351
 20
-262.1293562899
 10
623.5014857227
 20
-265.7631111566
 10
622.1006674547
 20
-269.2197315332
 10
620.523032107
 20
-272.4911443227
 10
618.7722643201
 20
-275.569708989
 10
616.8524530933
 20
-278.4482354016
 10
614.7680822346
 20
-281.1200006287
 10
612.5240198888
 20
-283.5787646389
 10
610.1255071675
 20
-285.8187848748
 10
607.5781459082
 20
-287.8348296654
 10
605.1261839749
 20
-289.476665376
  0
SPLINE
  5
108
330
1F
100
AcDbEntity
  8
0
  6
Continuous
 62
     7
370
    25
100
AcDbSpline
210
0.0
220
0.0
230
1.0
 70
     8
 71
     3
 72
    12
 73
     8
 74
     0
 42
0.00000001
 43
0.00000001
 40
0.0
 40
0.0
 40
0.0
 40
0.0
 40
0.2135794670246661
 40
0.4271756772636821
 40
0.6403488745905063
 40
0.8532667186805564
 40
1.0
 40
1.0
 40
1.0
 40
1.0
 10
537.9654002288003
 20
-104.2671193682506
 30
0.0
 10
537.1786230135716
 20
-104.199138095724
 30
0.0
 10
535.6050069049961
 20
-104.0631702213898
 30
0.0
 10
533.4947868193368
 20
-103.3341926354114
 30
0.0
 10
531.9124356063935
 20
-102.3254115155133
 30
0.0
 10
531.0019280625196
 20
-101.2353444055761
 30
0.0
 10
530.9958326880894
 20
-100.5160258021096
 30
0.0
 10
530.9933458495178
 20
-100.2225525677895
 30
0.0
  0
SPLINE
  5
109
330
1F
100
AcDbEntity
  8
0
  6
Continuous
 62
     7
370
    25
100
AcDbSpline
210
0.0
220
0.0
230
1.0
 70
     8
 71
     3
 72
    12
 73
     8
 74
     0
 42
0.00000001
 43
0.00000001
 40
0.0
 40
0.0
 40
0.0
 40
0.0
 40
0.2152963856802471
 40
0.4309557137107222
 40
0.6463751743371872
 40
0.861873864211589
 40
1.0
 40
1.0
 40
1.0
 40
1.0
 10
544.907562232953
 20
-100.3852422134142
 30
0.0
 10
544.8308813989538
 20
-100.8475016627764
 30
0.0
 10
544.6773904639359
 20
-101.7727998292551
 30
0.0
 10
543.4733111483511
 20
-102.9765566366208
 30
0.0
 10
541.7008786854026
 20
-103.8450349153961
 30
0.0
 10
539.7506594367322
 20
-104.2573604882227
 30
0.0
 10
538.4668551828375
 20
-104.2643782319976
 30
0.0
 10
537.9654002288003
 20
-104.2671193682506
 30
0.0
  0
LWPOLYLINE
  5
10A
330
1F
100
AcDbEntity
  8
0
  6
Continuous
 62
     7
370
    25
100
AcDbPolyline
 90
       33
 70
   128
 43
0.0
 10
532.9586928805
 20
-91.5258328212
 10
532.0881530627
 20
-90.9134715109
 10
531.4412836213
 20
-90.2148335317
 10
531.042943386
 20
-89.4567671493
 10
530.9084403488
 20
-88.6684044298
 10
531.042943386
 20
-87.8800417103
 10
531.4412836213
 20
-87.1219753279
 10
532.0881530627
 20
-86.4233373487
 10
532.9586928805
 20
-85.8109760384
 10
534.0194487177
 20
-85.3084240987
 10
535.2296563223
 20
-84.9349943188
 10
536.5428080947
 20
-84.7050373958
 10
537.9084403488
 20
-84.6273904452
 10
539.274072603
 20
-84.7050373958
 10
540.5872243754
 20
-84.9349943188
 10
541.79743198
 20
-85.3084240987
 10
542.8581878171
 20
-85.8109760384
 10
543.728727635
 20
-86.4233373487
 10
544.3755970764
 20
-87.1219753279
 10
544.7739373117
 20
-87.8800417103
 10
544.9084403488
 20
-88.6684044298
 10
544.7739373117
 20
-89.4567671493
 10
544.3755970764
 20
-90.2148335317
 10
543.728727635
 20
-90.9134715109
 10
542.8581878171
 20
-91.5258328212
 10
541.79743198
 20
-92.0283847609
 10
540.5872243754
 20
-92.4018145408
 10
539.274072603
 20
-92.6317714638
 10
537.9084403488
 20
-92.7094184144
 10
536.5428080947
 20
-92.6317714638
 10
535.2296563223
 20
-92.4018145408
 10
534.0194487177
 20
-92.0283847609
 10
532.9586928805
 20
-91.5258328212
  0
LWPOLYLINE
  5
10B
330
1F
100
AcDbEntity
  8
0
  6
Continuous
 62
     7
370
    25
100
AcDbPolyline
 90
       28
 70
   128
 43
0.0
 10
534.3729064429
 20
-90.7094247093
 10
533.6528569867
 20
-90.1837170746
 10
533.162227131
 20
-89.5763185429
 10
532.9274668584
 20
-88.9199741264
 10
532.9612321559
 20
-88.2500675225
 10
533.2617027277
 20
-87.6027135694
 10
533.8126801274
 20
-87.0128112866
 10
534.5844610208
 20
-86.5121624586
 10
535.5354385001
 20
-86.1277571933
 10
536.6143451233
 20
-85.8803188783
 10
537.7630167551
 20
-85.783186977
 10
538.9195282105
 20
-85.8415978953
 10
540.0215316575
 20
-86.0524026857
 10
541.0096178052
 20
-86.4042368072
 10
541.8305186734
 20
-86.8781327912
 10
542.439979284
 20
-87.4485427828
 10
542.8051434577
 20
-88.0847158314
 10
542.9063250993
 20
-88.7523556835
 10
542.7380694803
 20
-89.4154697017
 10
542.3094473047
 20
-90.0383092378
 10
541.643565705
 20
-90.5872968511
 10
540.7763225306
 20
-91.0328364773
 10
539.7544710854
 20
-91.3509089598
 10
538.6330996454
 20
-91.5243669287
 10
537.4726616351
 20
-91.5438592201
 10
536.3357165681
 20
-91.4083349994
 10
535.2835574472
 20
-91.1251004125
 10
534.3729064429
 20
-90.7094247093
  0
LWPOLYLINE
  5
10C
330
1F
100
AcDbEntity
  8
0
  6
Continuous
 62
     1
370
    25
100
AcDbPolyline
 90
       67
 70
   128
 43
0.0
 10
409.2558542194
 20
-134.4538312323
 10
411.0249075612
 20
-133.4927392135
 10
413.9676221063
 20
-132.1416581264
 10
417.0335808635
 20
-131.0281550669
 10
420.2157320296
 20
-130.1547911276
 10
423.5067565548
 20
-129.5235750737
 10
426.8990849773
 20
-129.1359587221
 10
430.384914833
 20
-128.9928336031
 10
433.9562286015
 20
-129.0945289089
 10
437.6048121467
 20
-129.440810737
 10
441.3222736096
 20
-130.0308826283
 10
445.1000627096
 20
-130.8633873983
 10
448.9294904107
 20
-131.9364102595
 10
452.8017489066
 20
-133.247483225
 10
456.7079318786
 20
-134.7935907847
 10
460.6390549807
 20
-136.5711768419
 10
464.5860765038
 20
-138.5761528917
 10
468.5399181718
 20
-140.8039074248
 10
472.4914860223
 20
-143.2493165345
 10
476.4316913226
 20
-145.9067557014
 10
480.3514714742
 20
-148.7701127303
 10
484.2418108571
 20
-151.8328018083
 10
488.0937615661
 20
-155.0877786523
 10
491.8984639912
 20
-158.5275567114
 10
495.6471671948
 20
-162.1442243856
 10
499.3312490394
 20
-165.9294632236
 10
502.9422360188
 20
-169.8745670546
 10
506.4718227472
 20
-173.9704620134
 10
509.9118910619
 20
-178.2077274104
 10
513.2545286956
 20
-182.5766173994
 10
516.4920474747
 20
-187.0670833934
 10
519.6170010022
 20
-191.6687971766
 10
522.6222017849
 20
-196.37117466
 10
525.5007377646
 20
-201.1634002247
 10
528.2459882163
 20
-206.0344515982
 10
530.8516389762
 20
-210.9731252063
 10
533.3116969638
 20
-215.9680619415
 10
535.6205039669
 20
-221.0077732892
 10
537.7727496556
 20
-226.0806677518
 10
539.7634837958
 20
-231.1750775094
 10
541.588127635
 20
-236.2792852564
 10
543.2424844341
 20
-241.3815511515
 10
544.7227491194
 20
-246.4701398194
 10
546.0255170346
 20
-251.5333473433
 10
547.1477917718
 20
-256.5595281835
 10
548.0869920632
 20
-261.5371219632
 10
548.8409577179
 20
-266.454680057
 10
549.4079545909
 20
-271.3008919237
 10
549.7866785711
 20
-276.0646111209
 10
549.9762585813
 20
-280.7348809416
 10
549.9762585813
 20
-285.3009596156
 10
549.7866785711
 20
-289.7523450156
 10
549.4079545909
 20
-294.0787988127
 10
548.8409577179
 20
-298.2703700243
 10
548.0869920632
 20
-302.3174179025
 10
547.1477917718
 20
-306.2106341073
 10
546.0255170346
 20
-309.9410641168
 10
544.7227491194
 20
-313.5001278224
 10
543.2424844341
 20
-316.8796392634
 10
541.588127635
 20
-320.0718254554
 10
539.7634837958
 20
-323.0693442678
 10
537.7727496556
 20
-325.8653013112
 10
535.6205039669
 20
-328.4532657948
 10
533.3116969638
 20
-330.8272853175
 10
530.8516389762
 20
-332.9818995581
 10
528.2459882163
 20
-334.912152835
 10
525.8467245357
 20
-336.4162261442
  0
LWPOLYLINE
  5
10D
330
1F
100
AcDbEntity
  8
0
  6
Continuous
 62
     1
370
    25
100
AcDbPolyline
 90
       67
 70
   128
 43
0.0
 10
426.9337230378
 20
-124.2486147867
 10
428.7025770909
 20
-123.2876378157
 10
431.6452916359
 20
-121.9365567286
 10
434.7112503932
 20
-120.8230536691
 10
437.8934015593
 20
-119.9496897298
 10
441.1844260845
 20
-119.3184736759
 10
444.5767545069
 20
-118.9308573243
 10
448.0625843626
 20
-118.7877322053
 10
451.6338981311
 20
-118.8894275111
 10
455.2824816764
 20
-119.2357093393
 10
458.9999431392
 20
-119.8257812305
 10
462.7777322392
 20
-120.6582860005
 10
466.6071599404
 20
-121.7313088618
 10
470.4794184363
 20
-123.0423818272
 10
474.3856014083
 20
-124.5884893869
 10
478.3167245104
 20
-126.3660754442
 10
482.2637460334
 20
-128.3710514939
 10
486.2175877015
 20
-130.598806027
 10
490.169155552
 20
-133.0442151367
 10
494.1093608523
 20
-135.7016543036
 10
498.0291410038
 20
-138.5650113325
 10
501.9194803868
 20
-141.6277004105
 10
505.7714310958
 20
-144.8826772545
 10
509.5761335209
 20
-148.3224553136
 10
513.3248367245
 20
-151.9391229878
 10
517.0089185691
 20
-155.7243618258
 10
520.6199055485
 20
-159.6694656568
 10
524.1494922768
 20
-163.7653606156
 10
527.5895605915
 20
-168.0026260126
 10
530.9321982253
 20
-172.3715160016
 10
534.1697170044
 20
-176.8619819956
 10
537.2946705319
 20
-181.4636957788
 10
540.2998713145
 20
-186.1660732622
 10
543.1784072942
 20
-190.9582988269
 10
545.923657746
 20
-195.8293502004
 10
548.5293085058
 20
-200.7680238085
 10
550.9893664934
 20
-205.7629605437
 10
553.2981734966
 20
-210.8026718914
 10
555.4504191853
 20
-215.875566354
 10
557.4411533254
 20
-220.9699761116
 10
559.2657971647
 20
-226.0741838587
 10
560.9201539638
 20
-231.1764497537
 10
562.400418649
 20
-236.2650384216
 10
563.7031865643
 20
-241.3282459455
 10
564.8254613015
 20
-246.3544267858
 10
565.7646615929
 20
-251.3320205654
 10
566.5186272476
 20
-256.2495786592
 10
567.0856241206
 20
-261.0957905259
 10
567.4643481008
 20
-265.8595097231
 10
567.6539281109
 20
-270.5297795438
 10
567.6539281109
 20
-275.0958582178
 10
567.4643481008
 20
-279.5472436179
 10
567.0856241206
 20
-283.8736974149
 10
566.5186272476
 20
-288.0652686265
 10
565.7646615929
 20
-292.1123165047
 10
564.8254613015
 20
-296.0055327095
 10
563.7031865643
 20
-299.735962719
 10
562.400418649
 20
-303.2950264246
 10
560.9201539638
 20
-306.6745378657
 10
559.2657971647
 20
-309.8667240576
 10
557.4411533254
 20
-312.86424287
 10
555.4504191853
 20
-315.6601999134
 10
553.2981734966
 20
-318.248164397
 10
550.9893664934
 20
-320.6221839197
 10
548.5293085058
 20
-322.7767981603
 10
545.923657746
 20
-324.7070514372
 10
543.5242472631
 20
-326.2112094939
  0
ENDSEC
  0
SECTION
  2
OBJECTS
  0
DICTIONARY
  5
C
330
0
100
AcDbDictionary
281
     1
  3
ACAD_GROUP
350
D
  3
ACAD_LAYOUT
350
1A
  3
ACAD_MLINESTYLE
350
17
  3
ACAD_PLOTSETTINGS
350
19
  3
ACAD_PLOTSTYLENAME
350
E
  3
ACAD_SCALELIST
350
47
  3
DWGPROPS
350
10E
  0
DICTIONARY
  5
D
102
{ACAD_REACTORS
330
C
102
}
330
C
100
AcDbDictionary
281
     1
  0
DICTIONARY
  5
1A
102
{ACAD_REACTORS
330
C
102
}
330
C
100
AcDbDictionary
281
     1
  3
Layout1
350
1E
  3
Layout2
350
26
  3
Model
350
22
  0
DICTIONARY
  5
17
102
{ACAD_REACTORS
330
C
102
}
330
C
100
AcDbDictionary
281
     1
  3
Standard
350
18
  0
DICTIONARY
  5
19
102
{ACAD_REACTORS
330
C
102
}
330
C
100
AcDbDictionary
281
     1
  0
ACDBDICTIONARYWDFLT
  5
E
102
{ACAD_REACTORS
330
C
102
}
330
C
100
AcDbDictionary
281
     1
  3
Normal
350
F
100
AcDbDictionaryWithDefault
340
F
  0
DICTIONARY
  5
47
102
{ACAD_REACTORS
330
C
102
}
330
C
100
AcDbDictionary
281
     1
  3
A0
350
48
  3
A1
350
49
  3
A2
350
4A
  3
A3
350
4B
  3
A4
350
4C
  3
A5
350
4D
  3
A6
350
4E
  3
A7
350
4F
  3
A8
350
50
  3
A9
350
51
  3
B0
350
52
  3
B1
350
53
  3
B2
350
54
  3
B3
350
55
  3
B4
350
56
  3
B5
350
57
  3
B6
350
58
  3
B7
350
59
  3
B8
350
5A
  3
B9
350
5B
  3
C0
350
5C
  3
C1
350
5D
  3
C2
350
5E
  3
C3
350
5F
  3
C4
350
60
  3
C5
350
61
  3
C6
350
62
  3
C7
350
63
  3
C8
350
64
  3
C9
350
65
  3
D0
350
66
  3
D1
350
67
  3
D2
350
68
  0
XRECORD
  5
10E
102
{ACAD_REACTORS
330
C
102
}
330
C
100
AcDbXrecord
280
     1
  1
DWGPROPS COOKIE
  2

  3

  4

  6

  7

  8
b.kav
  9

300
=
301
=
302
=
303
=
304
=
305
=
306
=
307
=
308
=
309
=
 40
0.0
 41
2460390.230082523
 42
2460390.23008272
  1

 90
        0
  0
LAYOUT
  5
1E
102
{ACAD_REACTORS
330
1A
102
}
330
1A
100
AcDbPlotSettings
  1

  2
none_device
  4

  6

 40
0.0
 41
0.0
 42
0.0
 43
0.0
 44
0.0
 45
0.0
 46
0.0
 47
0.0
 48
0.0
 49
0.0
140
0.0
141
0.0
142
1.0
143
1.0
 70
   688
 72
     1
 73
     0
 74
     5
  7

 75
    16
147
1.0
148
0.0
149
0.0
100
AcDbLayout
  1
Layout1
 70
     1
 71
     1
 10
0.0
 20
0.0
 11
420.0
 21
297.0
 12
0.0
 22
0.0
 32
0.0
 14
1.0000000000E+20
 24
1.0000000000E+20
 34
1.0000000000E+20
 15
-1.0000000000E+20
 25
-1.0000000000E+20
 35
-1.0000000000E+20
146
0.0
 13
0.0
 23
0.0
 33
0.0
 16
1.0
 26
0.0
 36
0.0
 17
0.0
 27
1.0
 37
0.0
 76
     0
330
1B
  0
LAYOUT
  5
26
102
{ACAD_REACTORS
330
1A
102
}
330
1A
100
AcDbPlotSettings
  1

  2
none_device
  4

  6

 40
0.0
 41
0.0
 42
0.0
 43
0.0
 44
0.0
 45
0.0
 46
0.0
 47
0.0
 48
0.0
 49
0.0
140
0.0
141
0.0
142
1.0
143
1.0
 70
   688
 72
     1
 73
     0
 74
     5
  7

 75
    16
147
1.0
148
0.0
149
0.0
100
AcDbLayout
  1
Layout2
 70
     1
 71
     2
 10
0.0
 20
0.0
 11
0.0
 21
0.0
 12
0.0
 22
0.0
 32
0.0
 14
0.0
 24
0.0
 34
0.0
 15
0.0
 25
0.0
 35
0.0
146
0.0
 13
0.0
 23
0.0
 33
0.0
 16
1.0
 26
0.0
 36
0.0
 17
0.0
 27
1.0
 37
0.0
 76
     0
330
23
  0
LAYOUT
  5
22
102
{ACAD_REACTORS
330
1A
102
}
330
1A
100
AcDbPlotSettings
  1

  2
none_device
  4
Letter_(8.50_x_11.00_Inches)
  6

 40
6.35
 41
6.35
 42
6.35000508
 43
6.35000508
 44
215.9
 45
279.4
 46
0.0
 47
0.0
 48
0.0
 49
0.0
140
0.0
141
0.0
142
1.0
143
1.0
 70
  1712
 72
     1
 73
     0
 74
     0
  7

 75
     0
147
1.0
148
0.0
149
0.0
100
AcDbLayout
  1
Model
 70
     1
 71
     0
 10
0.0
 20
0.0
 11
279.4
 21
215.9
 12
0.0
 22
0.0
 32
0.0
 14
0.0
 24
0.0
 34
0.0
 15
279.4
 25
215.9
 35
0.0
146
0.0
 13
0.0
 23
0.0
 33
0.0
 16
1.0
 26
0.0
 36
0.0
 17
0.0
 27
1.0
 37
0.0
 76
     0
330
1F
331
29
  0
MLINESTYLE
  5
18
102
{ACAD_REACTORS
330
17
102
}
330
17
100
AcDbMlineStyle
  2
Standard
 70
     0
  3

 62
   256
 51
90.0
 52
90.0
 71
     2
 49
0.5
 62
   256
  6
BYLAYER
 49
-0.5
 62
   256
  6
BYLAYER
  0
ACDBPLACEHOLDER
  5
F
102
{ACAD_REACTORS
330
E
102
}
330
E
  0
SCALE
  5
48
102
{ACAD_REACTORS
330
47
102
}
330
47
100
AcDbScale
 70
     0
300
1:1
140
1.0
141
1.0
290
     1
  0
SCALE
  5
49
102
{ACAD_REACTORS
330
47
102
}
330
47
100
AcDbScale
 70
     0
300
1:2
140
1.0
141
2.0
290
     0
  0
SCALE
  5
4A
102
{ACAD_REACTORS
330
47
102
}
330
47
100
AcDbScale
 70
     0
300
1:4
140
1.0
141
4.0
290
     0
  0
SCALE
  5
4B
102
{ACAD_REACTORS
330
47
102
}
330
47
100
AcDbScale
 70
     0
300
1:5
140
1.0
141
5.0
290
     0
  0
SCALE
  5
4C
102
{ACAD_REACTORS
330
47
102
}
330
47
100
AcDbScale
 70
     0
300
1:8
140
1.0
141
8.0
290
     0
  0
SCALE
  5
4D
102
{ACAD_REACTORS
330
47
102
}
330
47
100
AcDbScale
 70
     0
300
1:10
140
1.0
141
10.0
290
     0
  0
SCALE
  5
4E
102
{ACAD_REACTORS
330
47
102
}
330
47
100
AcDbScale
 70
     0
300
1:16
140
1.0
141
16.0
290
     0
  0
SCALE
  5
4F
102
{ACAD_REACTORS
330
47
102
}
330
47
100
AcDbScale
 70
     0
300
1:20
140
1.0
141
20.0
290
     0
  0
SCALE
  5
50
102
{ACAD_REACTORS
330
47
102
}
330
47
100
AcDbScale
 70
     0
300
1:30
140
1.0
141
30.0
290
     0
  0
SCALE
  5
51
102
{ACAD_REACTORS
330
47
102
}
330
47
100
AcDbScale
 70
     0
300
1:40
140
1.0
141
40.0
290
     0
  0
SCALE
  5
52
102
{ACAD_REACTORS
330
47
102
}
330
47
100
AcDbScale
 70
     0
300
1:50
140
1.0
141
50.0
290
     0
  0
SCALE
  5
53
102
{ACAD_REACTORS
330
47
102
}
330
47
100
AcDbScale
 70
     0
300
1:100
140
1.0
141
100.0
290
     0
  0
SCALE
  5
54
102
{ACAD_REACTORS
330
47
102
}
330
47
100
AcDbScale
 70
     0
300
2:1
140
2.0
141
1.0
290
     0
  0
SCALE
  5
55
102
{ACAD_REACTORS
330
47
102
}
330
47
100
AcDbScale
 70
     0
300
4:1
140
4.0
141
1.0
290
     0
  0
SCALE
  5
56
102
{ACAD_REACTORS
330
47
102
}
330
47
100
AcDbScale
 70
     0
300
8:1
140
8.0
141
1.0
290
     0
  0
SCALE
  5
57
102
{ACAD_REACTORS
330
47
102
}
330
47
100
AcDbScale
 70
     0
300
10:1
140
10.0
141
1.0
290
     0
  0
SCALE
  5
58
102
{ACAD_REACTORS
330
47
102
}
330
47
100
AcDbScale
 70
     0
300
100:1
140
100.0
141
1.0
290
     0
  0
SCALE
  5
59
102
{ACAD_REACTORS
330
47
102
}
330
47
100
AcDbScale
 70
     0
300
1/128" = 1'-0"
140
0.0078125
141
12.0
290
     0
  0
SCALE
  5
5A
102
{ACAD_REACTORS
330
47
102
}
330
47
100
AcDbScale
 70
     0
300
1/64" = 1'-0"
140
0.015625
141
12.0
290
     0
  0
SCALE
  5
5B
102
{ACAD_REACTORS
330
47
102
}
330
47
100
AcDbScale
 70
     0
300
1/32" = 1'-0"
140
0.03125
141
12.0
290
     0
  0
SCALE
  5
5C
102
{ACAD_REACTORS
330
47
102
}
330
47
100
AcDbScale
 70
     0
300
1/16" = 1'-0"
140
0.0625
141
12.0
290
     0
  0
SCALE
  5
5D
102
{ACAD_REACTORS
330
47
102
}
330
47
100
AcDbScale
 70
     0
300
3/32" = 1'-0"
140
0.09375
141
12.0
290
     0
  0
SCALE
  5
5E
102
{ACAD_REACTORS
330
47
102
}
330
47
100
AcDbScale
 70
     0
300
1/8" = 1'-0"
140
0.125
141
12.0
290
     0
  0
SCALE
  5
5F
102
{ACAD_REACTORS
330
47
102
}
330
47
100
AcDbScale
 70
     0
300
3/16" = 1'-0"
140
0.1875
141
12.0
290
     0
  0
SCALE
  5
60
102
{ACAD_REACTORS
330
47
102
}
330
47
100
AcDbScale
 70
     0
300
1/4" = 1'-0"
140
0.25
141
12.0
290
     0
  0
SCALE
  5
61
102
{ACAD_REACTORS
330
47
102
}
330
47
100
AcDbScale
 70
     0
300
3/8" = 1'-0"
140
0.375
141
12.0
290
     0
  0
SCALE
  5
62
102
{ACAD_REACTORS
330
47
102
}
330
47
100
AcDbScale
 70
     0
300
1/2" = 1'-0"
140
0.5
141
12.0
290
     0
  0
SCALE
  5
63
102
{ACAD_REACTORS
330
47
102
}
330
47
100
AcDbScale
 70
     0
300
3/4" = 1'-0"
140
0.75
141
12.0
290
     0
  0
SCALE
  5
64
102
{ACAD_REACTORS
330
47
102
}
330
47
100
AcDbScale
 70
     0
300
1" = 1'-0"
140
1.0
141
12.0
290
     0
  0
SCALE
  5
65
102
{ACAD_REACTORS
330
47
102
}
330
47
100
AcDbScale
 70
     0
300
1-1/2" = 1'-0"
140
1.5
141
12.0
290
     0
  0
SCALE
  5
66
102
{ACAD_REACTORS
330
47
102
}
330
47
100
AcDbScale
 70
     0
300
3" = 1'-0"
140
3.0
141
12.0
290
     0
  0
SCALE
  5
67
102
{ACAD_REACTORS
330
47
102
}
330
47
100
AcDbScale
 70
     0
300
6" = 1'-0"
140
6.0
141
12.0
290
     0
  0
SCALE
  5
68
102
{ACAD_REACTORS
330
47
102
}
330
47
100
AcDbScale
 70
     0
300
1'-0" = 1'-0"
140
12.0
141
12.0
290
     0
  0
ENDSEC
  0
EOF
